Cifras para Violão e Guitarra » E »Eduardo Gatti » los Momentos (Tab)

los Momentos
Eduardo Gatti

Letras, cifras e tablaturas para violão, guitarra, piano, ukulele e baixo

  • Intro: SIm - SOL - RE - LA (x2) SIm (SI9)
    
           SIm          SOLmaj7
    A)Tu silueta va caminando
           RE               LA
    con el alma triste y dormida
            MIm             SIm
    ya la aurora no es nada nuevo
                 RE                LA
    pa' tus ojos grandes y pa' tu frente
          MIm           SIm
    ya el cielo y sus estrellas
                RE               LA
    se quedaron mudos, lejanos y muertos
                 SIm (SI9)
    pa' tu mente ajena.
    
    A)Nos hablaron una vez cuando niños
    cuando la vida se muestra entera
    que el futuro que cuando grande
    
  •      LAm        FA
    Tu silueta va caminando
           DO             SOL
    con el alma triste y dormida
           REm           LAm
    ya la aurora no es nada nuevo
                  DO              SOL
    pa´ tus ojos grandes y pa´ tu frente
            REm          LAm
    ya el cielo y su estrellas
               DO
    se quedaro mudos lejanos
         SOL                 LAm
    y muertos pa´ tu mente ajena
    
         LAm                    FA
    Nos hablaron una vez cuando niños
        DO                     SOL
    cuando la vida se muestra entera
            REm                 LAm
    
  • LAm                 DO
    Tu silueta va caminando
                            SOL
    Con el alma triste y dormida
            MI               LAm
    Ya la aurora no es nada nuevo
                DO                 SOL
    Pa' tus ojos grandes y pa' tu frente
        SOL             LAm
    El cielo y sus estrellas
        DO                       SOL
    Se quedaron mudos lejanos y mueros
               LAm
    Pa' tu mente ajena.
    
    
    LAm                         DO
    Nos hablaron una vez cuando niños
                                 SOL
    Cuando la vida se muestra entera
    
  •    Bm       G          D      A          Bm       G          D      A
    E|----------3--------|-2---0--0--------|----------3--------|-2---0--0--------|
    B|-3-----------3-----|----3-3-2--2-----|-3-----------3-----|----3-3-2--2-----|
    G|----4-------4----0-|---2-------2-----|----4-------4----0-|---2-------2-----|
    D|---4----4----------|-0---0----2----2-|---4----4----------|-0---0----2----2-|
    A|-2----2------------|--------0----0---|-2----2------------|--------0----0---|
    E|----------3----3---|-----------------|----------3----3---|-----------------|
    
    
       Bm                                                           G
    E|-------------------|--------------------|-2-------2---------|-3-------3--------|
    B|-3--------3--------|-2---2-----3--------|----3--------3-----|----0-------0-----|
    G|----4--------4-----|--4-----------4-----|--------4--------4-|------------------|
    D|---4--------4------|---4-----4---4------|---4-------4-------|---0----0--0----0-|
    A|-2------2-2------2-|-2---------2------2-|-2-------2---------|------------------|
    E|------2--------2---|-------2--------2---|------2--------2---|-3----3--3----3---|
                                         Tu si..lueta   va  caminando           con el
    
       D                    A                   Em                  Bm
    E|-2--------2---------|-0-----------------|-0-------3----2----|---------3--------|
    
  • +
    ¡Colabora con nosotros!
    Envíanos tu versión de esta canción

Letra de los Momentos
Tu silueta va caminando
con el alma triste y dormida
ya la aurora no es nada nuevo
pa´ tus ojos grandes y pa´ tu frente
ya el cielo y su estrellas
se quedaro mudos lejanos
y muertos pa´ tu mente ajena
Nos hablaron una vez cuando niños
cuando la vida se muestra entera
que el futuro que cuando grandes
ahi murieron ya los momentos
sembraron asi sus semilla
y tuvimos miedo temblamos
y en esto se nos fuue la vida
(mismos acores)
Lalala.......
Cada uno aferrado a sus dioses
producto de toda una historia
los modelan y los destruyen
y segun eso ordenan sus vidas
en la frente le ponen monedas
en sus largas manos le cuelgan
candados, letrero y rejas.
(mismos acores)
Lalalalala.......
eso es todo y un saludo a todos mis amigos
el creda, brayan, isaac, bocha y todos y para
una persona muy especial.




[los Momentos acordes][los Momentos chords]
© LaCuerda.net · notícia legal · privacidade · es · en · pt · contato
DINAMICO