Cifras para Violão e Guitarra » E »Elefante » Asi Es La Vida (Tab)

Asi Es La Vida
Elefante

Letras, cifras e tablaturas para violão, guitarra, piano, ukulele e baixo

  • SOL menor
    Do menor
    FA mayor
    LA septima
    RE septima
    
    
    SOLm                         DOm       RE7
        Y que me traigan mas botellas
                        
                       SOLm
    Para quitarme este sabor de su sudor
    
                           DOm
    Y que me apunten en la cuenta
    
    A7                      RE7
    Toda la desgracia que dejo
    
    SOLm    DOm           REm
    
  • |-----------3-5-3------3------2-----5----8----11-|
    |---------3------6-3---3-----1-----4----7----10--|
    |-------3-----------3--3----2-----5----8----11---|
    |-----5----------------5---1-----4----7----10----|
    |---5------------------5-------------------------|
    |-3--------------------3-------------------------|
    
    
    SOLm                         DOm       RE7
        Y que me traigan mas botellas
                       SOLm
    para quitarme este sabor de su sudor
                           DOm
    y que me apunten en la cuenta
    A7                      RE7
    toda la desgracia que dejó
    
    
    SOLm    DOm           REm
    
    
  • INTRO:
    
    |-----------3-5-3------3------2-----5----8----11-|
    |---------3------6-3---3-----1-----4----7----10--|
    |-------3-----------3--3----2-----5----8----11---|
    |-----5----------------5---1-----4----7----10----|
    |---5------------------5-------------------------|
    |-3--------------------3-------------------------|
    
    
                              y que me traigan mas botellas   
    |-----------3-5-3------3--------------------------------3-----|
    |---------3------6-3---3-------------------------------4-4-4--|
    |-------3-----------3--3------------------------------5---5---|
    |-----5----------------5-----------------------------5--------|
    |---5------------------5----------------------------3---------|
    |-3--------------------3--------------------------------------|
    
    
    
        para quitarme este sabor de su sudor
    |-------------2-------2-------------3-5-3------3--|
    |----------1-----1------1---------3------6-3---3--|
    |-------2-----------2-----------3-----------3--3--|
    |----0-----------
  • B= bend
    p= pull off
    
    
    PRE-INTRO:  (Bullicio y murmullos)
    
      Gm7                             (disminuidos)
    e------------3-5-3------------------------8--11---
    B----------3-------3--------------7---10--7--10---
    G--------3-----------3-----3------5---8---8--11---
    D------3---------------3---3------7---10--8--10---
    A----5---------------------5------6---9-----------
    E--3-----------------------3----------------------
    
      Gm7
    e----------3-5-3----3-----
    B--------3-------3--3-----
    G------3------------3-----
    D----5--------------5-----
    A--5----------------5-----
    
  • SOL
    DO 
    RE7
    
    INTRO:
    |-----------3-5-3------3------2-----5----8----11-|
    |---------3------6-3---3-----1-----4----7----10--|
    |-------3-----------3--3----2-----5----8----11---|
    |-----5----------------5---1-----4----7----10----|
    |---5------------------5-------------------------|
    |-3--------------------3-------------------------|
                              y que me traigan mas botellas   
    |-----------3-5-3------3--------------------------------3-----|
    |---------3------6-3---3-------------------------------4-4-4--|
    |-------3-----------3--3------------------------------5---5---|
    |-----5----------------5-----------------------------5--------|
    |---5------------------5----------------------------3---------|
    |-3--------------------3--------------------------------------|
        para quitarme este sabor de su sudor
    |-------------2-------2-------------3-5-3------3--|
    
  • e|---------6-5---------------6-5--------------------------------------------------------|
    B|-------8-----8-6---------8-----8-6----------------------------------------------------|
    G|-----8-----------8-----8-----------7--7-7-7/8-8-7-7-7------------------------------7--|
    D|--10----------------10--------------------------------7--10-10-10-10-10-8-8-7-8-10----|
    A|--------------------------------------------------------------------------------------|
    E|--------------------------------------------------------------------------------------|
    
    e|---------6-5---------------6-5--------------------------------------------------------|
    B|-------8-----8-6---------8-----8-6----------------------------------------------------|
    G|-----8-----------8-----8-----------7--7-7-7/8-8-7-7-7---------------------------------|
    D|--10----------------10--------------------------------7--10-10-10-10-10-8-8-7h8p8-5---|
    A|--------------------------------------------------------------------------------------|
    E|--------------------------------------------------------------------------------------|
    
    
    Que no quieres nada mas de mi,
    que te fuiste con ese infeliz, que importa,             que importa
    
    e|-------3--------------------------------------------------|
    B|-------3--------------------------------------------------|
    
  •     Gm      Cm7      F      D7      D7*
    e*---3---*---3---*---1---*---2---*---3---*
    B*---3---*---4---*---1---*---1---*---1---*
    G*---3---*---3---*---2---*---2---*---2---*
    D*---5---*---5---*---3---*---0---*---0---*
    A*---5---*---3---*---3---*---x---*---x---*
    E*---3---*---x---*---1---*---x---*---x---*
    
    
    Intro:
                    Cm7                Gm              D7             Gm
    e*-----3-6-5-3------------3-6-5-3----------------------------------------
    B*-4-6---------6-4----3-4---------6-3---3-3-3h4-4-3-3----------------1-3-
    G*-----------------------------------------------------5-5-5-3-3-2-3-----
    D*-----------------------------------------------------------------------
    A*-----------------------------------------------------------------------
    E*-----------------------------------------------------------------------
    
                  Cm7                Gm              D7                   Gm
    -----3-6-5-3------------3-6-5-3------------------------------------------*
    
  • versos:
         solm            dom                       re7                 solm
    4:-3-6---3-6--------------------------------3-6---3-6----
    3:-----5------5----------------------------------5-----5--
    2:---------------3-6----3-6----5------5-------------------
    1:--------------------5------5----4-7---4-7---------------
    
    
    puente:
    
        y que te quise demasiado                            
    4:---3-3---3-3---1------1------
    3:-3-----3----------3-3---3-3--
    2:-------------------------------
    1:-------------------------------
    
    
         y que nadie te a querido como yo
    4:-------------------------------
    3:-5---5-3-5---5-3-5---5-3-5--
    2:---4--------4-------4---------
    1:-------------------------------
    
    coro:
         solm                          dom                         fa                           re7
    4:-3-3-6----3-3-6----------------------1-1-----1-1-----------------------
    3:--------5---------5-3-3-6---3-3-6--------0-3-----0-3-5-5-----5-5-----
    2:---------------------------5-------
  • La Version anterior estaba bien
    pero tiene un par de detalleas que voy a cambiar
    para que sea mas facil de entender
    
    Intro despues de lo hablado:
      Solm             Dom              Re              Solm
    1.---------     1.---------    1.----------    1.---------    1.-----
    2.---------     2.------5--    2.-----4-7--    2.---------    2.-----
    3.------5-- X4  3.-3--6---- X4 3.-5-------- X4 3.------5-- X3 3.-----
    4.-3--6----     4.---------    4.----------    4.-3--6----    4.-3---
    
    
    Versos:
      Solm             Dom              Re             Solm
    1.---------    1.---------    1.----------    1.---------
    2.---------    2.------5--    2.-----4-7--    2.---------
    3.------5-- X4 3.-3--6---- X4 3.-5-------- X4 3.------5-- X4 TodoX2
    4.-3--6----    4.---------    4.----------    4.-3--6----
    
    
    Que te quise, demasiado......
    
       Dom              Re
    1.---------      1.----------     1.---------
    2.------5--      2.-----4-7--     2.---------
    3.-3--6---- X4   3.-5-------- X2  3.-5-5-5-5-
    4.---------    
  • +
    ¡Colabora con nosotros!
    Envíanos tu versión de esta canción
  • Tutorial
    HD
    Como Tocar Así es la vida De Elefante En Guitarra
    10:06

Letra de Asi Es La Vida
Do menor
LA septima
Y que me traigan mas botellas

Para quitarme este sabor de su sudor
Y que me apunten en la cuenta
Toda la desgracia que dejo
Que no quieres nada maa de mi
Que te fuiste con ese infeliz
Que importa,
Que importa;
Que me va a matar la depresion
Que voy a vivir en el alcohol
Que importa
Que importa
Que te fuiste sin decir adios
Que no dormiras en mi colchon
Que importa
Que importa
Que ensuciaste mi reputación
Que te vale madres este amor
Que importa
que importa
Que te quise demasiado
Y que nadie te ha querido como yo
Asi es la Vida
De caprichosa, aveces negra, aveces color roja
Asi es la vida, jacarandosa, te quita te pone te sube, te baja y aveces te lo da
Asi es la vida............
Que me desangraste el corazón
Que me hara justicia la razón
Que importa
que importa
Que tu vida es un carnaval
Que tarde o temprano volveras
SOlm
Que imp
Que imp
Escuchame negra
Me dejaste esperano
Me juge la camista y perdi hasta el encanto
Chida ver la vida
Ya a me estoy desangrando
HAy mamita querdia me vo de tu vida y tu siges bailano
Asi es la vida........
Esta rola esta dedicada para todos mis amigos tanto del
Izcalli como los de Puebla, Gracias por ser asi................




[Asi Es La Vida acordes][Asi Es La Vida chords]
© LaCuerda.net · notícia legal · privacidade · es · en · pt · contato
DINAMICO