Cifras para Violão e Guitarra » E »Ella es tan Cargosa » Ni siquiera entre tus brazos (Tab)

Ni siquiera entre tus brazos
Ella es tan Cargosa

Letras, cifras e tablaturas para violão, guitarra, piano, ukulele e baixo

  • Intro: (A - Asus4 - A) x2
    
    Estrofa
    
           Bm
    Ni siquiera entre tus brazos
           E                       (A  Asus4 A) x2
    falta sol en este marzo sin color
              Bm                    E
    hace un frío despiadado, humedecido y triste
                  (A Asus4 A) x2
    fuera de estación
    
    Estribillo
    
        D            E
    Aparecen cuando desaparecés
        A           A7            F#
    los ojos del insomnio, las palmadas compasivas
         Bm          E   D   A
    
  • Este es el solo de la cancion:
    
    e|-------------------------------------------------|
    B|-------------------------------------------------|
    G|--9-7-6---6-7---6-7-9-7-6---6-7-6----------------|
    D|--------9-----------------9-------9--------------|
    A|-------------------------------------------------|
    E|-------------------------------------------------|
    
    e|-------------------------------------------------|
    B|--10-10s9—9s7-7s5-5s3-3s2s0----------------------|
    G|----------------------------2--------------------|
    D|-------------------------------------------------|
    A|-------------------------------------------------|
    E|-------------------------------------------------|
    
    e|--5-5s7-7s9-9s10-11s12-12s14-12------------------|
    B|-------------------------------------------------|
    G|-------------------------------------------------|
    D|-------------------------------------------------|
    A|-------------------------------------------------|
    E|-------------------------------------------------|
    
    e|--------
  • e|-------------------------------------------------|
    B|-------------------------------------------------|
    G|--9-7-6---6-7---6-7-9-7-6---6-7-6----------------|
    D|--------9-----------------9-------9--------------|
    A|-------------------------------------------------|
    E|-------------------------------------------------|
    
    e|-------------------------------------------------|
    B|--10-10s9-9s7-7s5-5s3-3s2s0----------------------|
    G|----------------------------2--------------------|
    D|-------------------------------------------------|
    A|-------------------------------------------------|
    E|-------------------------------------------------|
    
    e|--5-5s7-7s9-9s10-11s12-12s14-12------------------|
    B|-------------------------------------------------|
    G|-------------------------------------------------|
    D|-------------------------------------------------|
    A|-------------------------------------------------|
    E|-------------------------------------------------|
    
  • +
    ¡Colabora con nosotros!
    Envíanos tu versión de esta canción

Letra de Ni siquiera entre tus brazos
Estrofa
Ni siquiera entre tus brazos
falta sol en este marzo sin color
hace un frío despiadado, humedecido y triste
fuera de estación
Estribillo
Aparecen cuando desaparecés
los ojos del insomnio, las palmadas compasivas
oscurece cuando desaparecés
Estrofa
Ella dijo: ciudad, o verano,
nunca las dos cosas juntas, no
ese cóctel y el amor son enemigos casi por definición"
Estribillo
Aparecen cuando desaparecés
los síntomas nihilistas, las canciones en tonos menores
huele a poco y desaparecés
Estrofa
Recluido y sin niguna perspectiva de cruzar la habitación
ni siquiera entre tus brazos, y la gente preguntándome por vos
Estribillo
Aparecen cuando desaparecés
los diálogos con las paredes
los estragos de tu ausencia
oscurece y desaparecés.




[Ni siquiera entre tus brazos acordes][Ni siquiera entre tus brazos chords]
© LaCuerda.net · notícia legal · privacidade · es · en · pt · contato
DINAMICO