Cifras para Violão e Guitarra » E »En tu Presencia » Estoy Apasionado (Tab)

Estoy Apasionado
En tu Presencia

Letras, cifras e tablaturas para violão, guitarra, piano, ukulele e baixo

  • Intro ( E - B - C#m - A ) x 2   E
    
    
    E      B           C#m             A            E
    Cara cara quiero verte,    que tu luz brille en mi
               B            C#m          A      B      A
    Que tu gloria se derrame,     como fuego arda en mi
            B               C#m
    Pues de ti dependooooo….
                 A        B
    Sin tu amor yo muero….
                   E                   B
    // Estoy apasionado, estoy desesperado
                C#m               A             B* para volver al coro
    Por tu presencia, por tu presencia //
    
    
    Solo: E - B - C#m - A
  • Hola
    Aqui esta el solo de la canción
    espero q sirva d algo
    bendiciones
    
    E-------------------------------------------------------------
    B-------------12--12--12/14-12---12-------12----12--12/14-12--
    G------7/9--9----9---9-------------9-8-8-8----8---8-----------
    D-------------------------------------------------------------
    A-------------------------------------------------------------
    e-------------------------------------------------------------
    
    E-------------------------------------------------------------
    B--12---12/14-14-------12-12-------------------------12-------
    G-----9-----------13-13------9-9-11--9-11b13-11b13r11---11-9--
    D-------------------------------------------------------------
    A-------------------------------------------------------------
    e-------------------------------------------------------------
    
    E--------------------12-----14-----12-----14-----16-----14-----16-
    B---------------12-----12-12--12-12--12-12--12-12--12-12--12-12---
    G-11-9--9--11/13--13---------------
  • +
    ¡Colabora con nosotros!
    Envíanos tu versión de esta canción

Letra de Estoy Apasionado
Cara cara quiero verte, que tu luz brille en mi
Que tu gloria se derrame, como fuego arda en mi
Pues de ti dependooooo….
Sin tu amor yo muero….
// Estoy apasionado, estoy desesperado
Por tu presencia, por tu presencia //




[Estoy Apasionado acordes][Estoy Apasionado chords]
© LaCuerda.net · notícia legal · privacidade · es · en · pt · contato
DINAMICO