Cifras para Violão e Guitarra » E »Enjambre » Manía Cardiaca (Tab)

Manía Cardiaca
Enjambre

Letras, cifras e tablaturas para violão, guitarra, piano, ukulele e baixo

  •       E         D#m       C#m       B
    e|----7----|----6----|----4----|----2----|
    B|----9----|----7----|----5----|----4----|
    G|----9----|----8----|----6----|----4----|
    D|---------|---------|---------|---------|
    A|---------|---------|---------|---------|
    E|---------|---------|---------|---------|
    
    
    Aqui empieza el verso:
      E              D#m      C#m          B
    e|7-------|------6--|-----4------|-----2|
    B|9-------|------7--|-----5------|-----4|
    G|9-------|------8--|-----6------|-----4|
     Tu quien en el
          lumbral de años El corazón
                        perdiste entre extraños
    
    
       E                D#m       C#m     B
    
  • Emaj7 - D#m7 - C#m7 - Bmaj7
    
    Emaj7                 D#m7          C#m7             Bmaj7
    Tu quien en el umbral de años el corazon perdiste entre extraños
    Emaj7                 D#m7          C#m7           Bmaj7
    Tu quien en el festejo transitas y excitas a tus visitas
    
    Empieza el rasgueo :
    
    Emaj7           D#m7        C#m7       Bmaj7
    Tu quien no llora lagrimas sino inocentes animas
    Emaj7            D#m7        C#m7           Emaj7 (varias veces)
    Que lloran por cortejo hay sangre derramada en azulejo
    
        El    corazon      te di ya no me engañas
    1)--11-11-11-11-----11-11-11-11---10/12-12-12-12--10/12-12-12-12
    2)--12-12-12-12-----13-13-13-13---10/12-12-12-12--10/12-12-12-12
    3)--13-13-13-13-----13-13-13-13---10/12-12-12-12--10/12-12-12-12
    
       Dices que lo      perdiste y no lo extrañas
    
  • cualkier duda en lucketor@hotmail.com
    intro
    
    g------------
    d------------    x3
    a--7--6--4--2
    e------------
    
    
    g-------------------
    d-------------------    x1
    a--7-7-6-6-6-4-4-2-2
    e-------------------
    
    g---------------------------------------------------
    d---------------------------------------------------
    a--7-7-6-6-6-4-4-0-2-2-2-2-2-2-2-2-0-2-2-2-2-2-2-2-2
    e---------------------------------------------------
    
    coro
    
    g----------------4--4--------------------------------
    d--6-6-6-6-6-6-6--6-----------------2--2--4-4-4-4-4-4
    a---------------------4-4-4-4-4-4-4--4---------------
    e----------------------------------------------------
    
    
    g---------------------------------------------------------
    d----------------1--1--2-2-2-2-2-2-6-6-6-6-6-6-4-4-4-4-4-4
    a--2-2-2-2-2-2-2--2---------------------------------------
    e---------------------------------------------------------
    
    g---------------------------4--4--------------------------------
    d-------------6-6-6-6-6-6-6--6-----------------2--2--4-4-4-4-
  • +
    ¡Colabora con nosotros!
    Envíanos tu versión de esta canción

Letra de Manía Cardiaca
Tu quien en el umbral de años el corazon perdiste entre extraños
Tu quien en el festejo transitas y excitas a tus visitas
Empieza el rasgueo :
Tu quien no llora lagrimas sino inocentes animas
Que lloran por cortejo hay sangre derramada en azulejo
El corazon te di ya no me engañas
Dices que lo perdiste y no lo extrañas
Cambiaste tu de deber por mañas
Tus intenciones son de mala calaña
El corazon te di ya no me engañas
Bisturi revelo tu entrañas
Cai en lo profundo de tu organismo
Lo escondes con tal cinismo
Tu quien mi corazón curaste luego devoraste
Yo con los ojos sombríos y un torso vacío
(RASGUEO)
Quiero que encuentres un palpitar que sincronices con la vida
No quiere mi ayuda me alejo dejando la sangre en el azulejo
El corazon te di ya no me engañas
Dices que lo perdiste y no lo extrañas
Cambiaste tu de deber por mañas
Tus intenciones son de mala calaña
El corazon te di ya no me engañas
Bisturi revelo tu entrañas
Cai en lo profundo de tu organismo
lo escondes con tal cinismo
(CONTINUA CON EL RITMO DE LAS TABS)
-7 -6 -4 -2
-9 -7 -5 -4
-8 -6 -4 -3
-9 -8 -6 -4
-7 -6 -4 -2
-x -x -x -x
Saludos para Celis Sama - Durand - Viviana - Mapache
César Arístides Camacho Tisnado




[Manía Cardiaca acordes][Manía Cardiaca chords]
© LaCuerda.net · notícia legal · privacidade · es · en · pt · contato
DINAMICO