Cifras para Violão e Guitarra » E »Enrique Bunbury » El extranjero (Tab)

El extranjero
Enrique Bunbury

Letras, cifras e tablaturas para violão, guitarra, piano, ukulele e baixo

  • E|-------------------------------------------------------------------
    A|------------------------------------------------------------------2
    D|-------------------------------------------------------------------
    G|-3-4--3-4-5-4-3-4--3-4--3-4-5-4-3-4--3-4-5-4-3-4--3-4------4-3--3--
    B|------------------------------------------------------3--3---------
    E|-------------------------------------------------------------------
    
    Si no deseas hacer el punteado, hacer el intro con los acordes:
    Bm  Em
    
                       Bm        D                    Dm   (1*)
    Una barca en el puerto me espera. No se donde me ha de llevar.
    C                Em              Bbm7            F#
    No ando buscando grandeza. Solo esta tristeza deseo curar.
    Em                   Bm       D                              Dm 1*
    Me marcho y no pienso en la vuelta. Tampoco me apena lo que dejo atrás
    C                  Em          Bbm7                     F#
    Solo se que lo que me queda, en un solo bolsillo lo puedo llevar.
    
    Bm           Bbm7            G                         Bm
    
  • Em                    Bm        D                    Dm   
    Una barca en el puerto me espera. No se donde me ha de llevar.
    C                Em              D#            F#
    No ando buscando grandeza. Solo esta tristeza deseo curar.
    Em                   Bm       D                              Dm 
    Me marcho y no pienso en la vuelta. Tampoco me apena lo que dejo atrás
    C                  Em          D#                     F#
    Solo se que lo que me queda, en un solo bolsillo lo puedo llevar.
    
    Bm           D#            G                         Bm
    Me siento en casa en América. En la antigua quisiera morir.
                 Bbm7            G                        Bm
    Parecido me ocurre con África. Así es la essauira y el riff.
    
              F#                       Bm
    Pero allá donde voy me llaman el extranjero
               F#                       Bm
    Donde quiera que estoy, el extranjero me siento.
    
    Bm    Em
    
  • Intro: Bm
    
    Em                    Bm        D                    Dm
    Una barca en el puerto me espera. No se donde me ha de llevar.
    C                Em              C#            F#
    No ando buscando grandeza. Solo esta tristeza deseo curar.
    
       Em                        Bm       D                              Dm
       Me marcho y no pienso en la vuelta. Tampoco me apena lo que dejo atrás
    G|---------------------------------------|
    D|---------------------------------------|
    A|--7-----7/5-----5-5-5---5-5-7/8/12-5---|
    E|----7/0-----7/2-------5----------------|
    
      C                      Em          C#                     F#
      Solo se que lo que me queda, en un solo bolsillo lo puedo llevar.
    G|---------------------------------------|
    D|--------------2/5/9/5-------6-4--------|
    A|--5/3---3-3-5---------4---4-----4------|
    E|------3-----------------4---------2----|
    
  •                             El Extranjero
    
    NOTA:
    
    Espero y te ayude en algo esta tab.
    
    Si necesitas una tab en especial, escríbeme o visita...
    
    http://www.myspace.com/alejandrolauyola
    
    
    
         W                   W                   E  E  E  E  E  E  E  E
    G||-------------------|-------------------|--------------------------|
    D||-------------------|-------------------|--------------------------|
    A||-------------------|-------------------|--2-----------2-----------|
    E||-------------------|-------------------|--------2-----------2-----|
    
    
      E  E  E  E  E  E  E  E     E  E  E  E  E  E  E  E
    --------------------------|--------------------------|
    --------------------------|--------------------------|
    --2-----------2-----------|--2-----------2-----------|
    --------2-----------2-----|--------2-----------2-----|
    
    
      E  E  E  E  E  E  E  E     E  E  E  E  E  E  E  E
    --------------------------|--------------------------|
    --------------------------|--------------------------|
    --2-----------2-------
  • +
    ¡Colabora con nosotros!
    Envíanos tu versión de esta canción

Letra de El extranjero
Si no deseas hacer el punteado, hacer el intro con los acordes:
Una barca en el puerto me espera. No se donde me ha de llevar.
No ando buscando grandeza. Solo esta tristeza deseo curar.
Me marcho y no pienso en la vuelta. Tampoco me apena lo que dejo atrás
Me siento en casa en América. En la antigua quisiera morir.
Parecido me ocurre con África. Así es la essauira y el riff.
Pero allá donde voy me llaman el extranjero
Donde quiera que estoy, el extranjero me siento.
También extraño en mi tierra, aunque la quiera de verdad.
Pero mi corazón me aconseja, los nacionalismos que miedo me dan.
Ni patria ni bandera, ni raza ni condición.
Ni límites ni fronteras, extranjero soy.
Porque allá donde voy me llaman el extranjero
Donde quiera que estoy, el extranjero me siento.
Porque allá donde voy me llaman el extranjero
Donde quiera que estoy, el extranjero me siento.
Aclaraciones:
(1*): 1 3 2 0 0 0 --> 3 3 2 0 0 0 --> 1 3 2 0 0 0
La nota Bbm7 no es segura. Si sabes alguna posible variación no dudes en escibirme.




[El extranjero acordes][El extranjero chords]
© LaCuerda.net · notícia legal · privacidade · es · en · pt · contato
DINAMICO