Cifras para Violão e Guitarra » E »Enrique Bunbury » Frente a frente (Tab)

Frente a frente
Enrique Bunbury

Letras, cifras e tablaturas para violão, guitarra, piano, ukulele e baixo

  •     Gm             D7            Gm           D7
    
    e------------------2----2---------------------2----2----
    B------------------1----1---------------------1----1----
    G------------------2----2---------------------2----2----
    D--------5---------------------------5------------------
    A------5---------------------------5--------------------
    E---3-------3--------------------3-------3--------------
    
    Gm   D7             Gm  D7
    Queda   que poco queda
                   F              A#
    de nuestro amor apenas queda nada
                 D
    apenas ni palabras
    
    Quedan...
    
    Gm   D7                 Gm  D7
    Queda   solo es silencio       que hace
    
  •      Em          B7                Em      B7
    e-------------------------------------------------------
    B-------------------------------------------------------
    G-----------------2-------0-----------------2-------0---
    D--------2--------1-------1----------2------1-------1---
    A------2---2------2----------------2---2----2-----------
    E---0-------------0--------------0----------0-----------
    
    
    Em B7         Em B7             D
    Queda, que poco queda   de nuestro amor
                 G                 B7
    apenas queda nada, apenas ni palabras..Quedan
    
    
    Em B7           Em B7           D
    Queda, solo el silencio que hace estallar
                     G                     B7
    la noche fria y larga, la noche que no acaba
           Em
    
  •      Gm  D7
         Gm  D7
    
    
    Gm D7           Gm D7              F
    Queda, que poco queda de nuestro amor
                 A#                D
    apenas queda nada, apenas ni palabras
    D
    quedan...
    Gm D7            Gm D7               F
    Queda, solo el silencio que hace estallar
                    A#                      D
    la noche fría y larga, la noche que no acaba
    D        Gm
    solo eso queda...
    
    
          Gm         F          D#      F
    Solo quedan las ganas de llorar, al ver que
    
  • e-------------------------------
    B-------------------------------
    G---------------------5----3----
    D-----------5---------4----4----  (X 2)
    A-------5-------------5---------
    E---3-----------3---------------
    
    
    
    Gm   D7          Gm D7                F
    Queda, que poco queda   de nuestro amor
                 Bb                       D7
    apenas queda nada, apenas ni palabras
    
    quedan...
    
     Gm   D7          Gm D7                F
    Queda, solo el silencio  que hace estallar
                     Bb                       D7
    la noche fria y larga, la noche que no acaba
    
  •       Gm          D7                Gm      D7
    
    e-------------------------------------------------------
    B-------------------------------------------------------
    G-----------------5-------3-----------------5-------3---
    D--------5--------4-------4----------5------4-------4---
    A------5---5------5----------------5---5----5-----------
    E---3----------------------------3----------------------
    
    
    Gm    D           Gm   D7              F
    Queda,  que poco queda    de nuestro amor
                  A#                D7
    apenas queda nada, apenas ni palabras quedan...
    
     Gm   D            Gm    D7             F
    Queda,  solo el silencio    que hace estallar
                     A#                      D7
    la noche fria y larga, la noche que no acaba
               Gm
    
  • SOL m    RE??    ??2     FA??   SIb    SIb5    Re5/LA   Fa
    
    --3--   --3--   --3--   --5--  --1--   --x--   --x--   --1--
    --3--   --3--   --3--   --6--  --3--   --x--   --x--   --1--
    --3--   --5--   --3--   --5--  --3--   --3--   --x--   --2--
    --6--   --4--   --4--   --3--  --3--   --3--   --7--   --3--
    --6--   --5--   --5--   --x--  --1--   --1--   --5--   --3--
    --3--   --3--   --3--   --x--  --1--   --x--   --5--   --1--
    
    Intro
    
        SOL m        RE??    ??2     SOLm      RE??    ??2
    
    e-------------------------------------------------------
    B-------------------------------------------------------
    G-----------------5-------3-----------------5-------3---
    D--------5--------4-------4----------5------4-------4---
    A------5---5------5----------------5---5----5-----------
    E---3----------------------------3----------------------
    
    
  • +
    ¡Colabora con nosotros!
    Envíanos tu versión de esta canción

Letra de Frente a frente
Queda, que poco queda de nuestro amor
apenas queda nada, apenas ni palabras
quedan...
Queda, solo el silencio que hace estallar
la noche fria y larga, la noche que no acaba
nuestro amor se aleja, frente a frente, bajamos
la mirada, pues ya no queda nada de que hablar,
nada
(BIS)
Queda, poca ternura, y alguna vez, haciendo
una locura, un beso y a la fuerza, queda..
Queda, un gesto amable para no hacer la vida
insoportable y asi ahogar las penas solo eso
queda
nuestro amor se aleja, frente a frente, bajamos
la mirada, pues ya no queda nada de que hablar,
nada
(BIS)
**********************************************************************
Chequen esta super canción, se escucha un poco mejor metiendo
Si bemol entre cada Fa
Modificación de los acordes
V Buenrostro
vgbd_31@hotmail.com




[Frente a frente acordes][Frente a frente chords]
© LaCuerda.net · notícia legal · privacidade · es · en · pt · contato
DINAMICO