Cifras para Violão e Guitarra » E »Enrique Bunbury » Un poco de juego (Tab)

Un poco de juego
Enrique Bunbury

Letras, cifras e tablaturas para violão, guitarra, piano, ukulele e baixo

  • e-----------------------------------------------------------|
    B---------------------------------------------8-6-----------|
    G------------------------------------------8------9---------|
    D----------2-2-----------3-3---------0-0-------------3------|
    A-------3-------3------0-----0-----0------------------0-----|
    E-2-2--------------2-2---------0-0---------------------2----|
    
    e---------------------------------------------------1-1-1---|
    B--------------------------------------------3--3--3--------|
    G----------------12-----------------------4-----------------|
    D------------13------------------------5--------------------|
    A-12--18/20---------12---12---------------------------------|
    E-----------------------------8--4---3----------------------|
    
    e----------------------------|---------------------------|
    B------------11--------------|-----------11--------------|
    G-----12-12-----12-12--10----|----12-12-----12----12--10-|
    D------------8---------------|-----------8---------------|
    
  • +
    ¡Colabora con nosotros!
    Envíanos tu versión de esta canción






[Un poco de juego acordes][Un poco de juego chords]
© LaCuerda.net · notícia legal · privacidade · es · en · pt · contato
DINAMICO