Cifras para Violão e Guitarra » E »Ericson Alexander Molano » Soy Sano (Tab)

Soy Sano
Ericson Alexander Molano

Letras, cifras e tablaturas para violão, guitarra, piano, ukulele e baixo

  • BPM: 107  4/4  KEY: Db
    -------------------------
    [Preludio]
    Db Ab Bbm7 Gb Db/F Ab/C Bbm7 Gb
    Bbm7 Ab Gb Bbm7 Ab/C Gb
    
    
    [Intro 1]
    Db Ab Bbm7 Gb Db Ab Gb
    
    
    [Intro 2]
    Db Ab Bbm7 Gb Db Ab Gb Db/F Gb
    
    
    [Verso] (2x)
    Db                 Ab
    Tu victorioso salvador
                    Gb
    Digno de adoración
    
  •     D                 A                  G
       Tu victorioso salvador digno de adoracion.
       D                            A                       G
       venciste a la muerte en la cruz por tus llagas sano soy
         Bm7         A              G
       y no daremos gloria a nadie mas.
          Em7           Bm7          G    A
       jesucristo has venido a libertar.
    
            D                  A
       soy sano,soy libre en jesus.
                            Bm7                        G
       fue alla en aquella cruz que el vencio la enfermedad
         D                       A
       a el sea la gloria y el poder
                           Bm7                  G     D...
       me ha tocadocon su mano he recibido sanidad.,AMEN
    
    intro,Bm7,A,G.Em7,Bm7,G,A.//
    Y NUEVAMENTE EL ''CORO''
    
  • QUE DIOS LES BENDIGA MUCHISIMO Y SIGAN SIRVIENDO AL SEÑOR CON TODO
    SU CORAZON JESUS ESTA BUSCANDO VERDADEROS ADORADORES EN ESPIRITU Y
    VERDAD Y OBEDIENTES A SU LLAMADO ISAIAS 6-8
    ATT.RUBEN.PELAGIO.T.
    
    
    E------------------------------------------------------------/
    B--15-----15------15-15-14-15----15-----15------15-15-17-15--/
    G-----14-----14---------------------14-----14----------------/
    D------------------------------------------------------------/
    A------------------------------------------------------------/
    E------------------------------------------------------------/
      ESTO SE REPITE DOS VECES Y LUEGO...
      BBB                 BBB
    E-------------------------------------------17-------/
    B--17-17-17--15-17------15--17-17-17----15-----------/
    G----------------------------------------------------/
                            S
    E--------------------------------------------------/
    B--20-19-17-----------15----17-15------------------/
    G---------
  • +
    ¡Colabora con nosotros!
    Envíanos tu versión de esta canción

Letra de Soy Sano
Tu victorioso salvador digno de adoracion.
venciste a la muerte en la cruz por tus llagas sano soy
y no daremos gloria a nadie mas.
jesucristo has venido a libertar.
soy sano,soy libre en jesus.
fue alla en aquella cruz que el vencio la enfermedad
a el sea la gloria y el poder
me ha tocadocon su mano he recibido sanidad.,AMEN
Y NUEVAMENTE EL ''CORO''
BENDICIONES Mi EMAIL ES mexicool_la@hotmail




[Soy Sano acordes][Soy Sano chords]
© LaCuerda.net · notícia legal · privacidade · es · en · pt · contato
DINAMICO