Cifras para Violão e Guitarra » E »Eros Ramazzotti » Otra como tú (Tab)

Otra como tú
Eros Ramazzotti

Letras, cifras e tablaturas para violão, guitarra, piano, ukulele e baixo

  • F-Em-F-G-Am     F-Em-F-G-Am
                F
    No puede haber
                Em
    donde la encontraria
            F   G           Am
    otra mujer,   igual que tu.
                F
    No puede haber  (desgracia semejante)
               Em
    desgracia semejante  (encontrar otra mujer)
            F                   G
    otra mujer  (desgracia semejante)
               C
    igual que tu.
           Am
    Con iguales emociones
    
    con las expresiones
                                  C
    
  • e--9-8-----6-----|--9-9-9-9--11--------|
    B--------9-------|--------------9------|
    G----------------|---------------------|
    D----------------|---------------------|
    A----------------|---------------------|
    E----------------|---------------------|
    
       00:11            00:17
    e---9-8-------9-9-|--9-8------------|
    B--------9-7------|--------9-6------|
    G-----------------|-----------------|
    D-----------------|-----------------|
    A-----------------|-----------------|
    E-----------------|-----------------|
    
    PART 2. 00:22      00:28
    e--9-8-----6-----|--9-9-9-9--11--------|
    B--------9-------|--------------9------|
    G----------------|---------------------|
    D----------------|---------------------|
    
  • hola a todos,esta es mi primera transcripcion,espero que la pongan.
    creo que el solo anterior estaba subido un tono de mas,para mi este
    solo esta en el tono del disco.
    
    INTRO:
    
    PART 1. 00:00
    e--9-8-----6-----/--9-9-9-9--11--------
    B--------9-------/----------------9----
    G----------------/------------------10-
    D----------------/---------------------
    A----------------/---------------------
    E----------------/---------------------
    
    e---9-8-------9-9-/--9-8------------
    B--------9-7------/--------9-6------
    G-----------------/-----------------
    D-----------------/-----------------
    A-----------------/-----------------
    E-----------------/-----------------
    
    2:38
    
    e--6-9---6---/------------/--6h9-6---6------
    B------9---6-/--6-9---6---/--------9---9-6--
    G------------/------8---6-/-----------------
    D------------/------------/-----------------
    A------------/------------/-----------------
    E------------/------------/-----------------
    
    2:58
    
    e---9-8-----
    B-------9-6-
    G-----------
    
    Solo:
    
    3:39
    
    
    e-----12
  • Bueno aqui les dejo
    esta tab completa de otra como tu
    esta cancion va para ti Karla te amo!!
    
    No puede haber
    donde la encontraria
    otra mujer igual que tu.
    No puede haber  (desgracia semejante)
    desgracia semejante  (encontrar otra mujer)
    otra mujer  (desgracia semejante)
    igual que tu.
    
    G |---------------|--------------|--------|---------|----------------|
    D |---------------|--------------|--------|---------|----------------|
    A |---------------|--------------|--------|---------|-1-1-1-1-1-1-1--|
    E |--2-2-2-2-2-2-2|-1-1-1-1-1-1-1|-2-2-2-2|-4-4-4-4-|----------------|
    
    G |---------------|--------------|--------|--------|-----------------|
    D |---------------|--------------|--------|--------|-----------------|
    A |---------------|--------------|--------|--------|-4-4-4-4-4-4-4---|
    E |--2-2-2-2-2-2-2|-1-1-1-1-1-1-1|-2-2-2-2|-4-4-4-4|-----------------|
    
    
    Con iguales emociones
    con las expresiones
    que en otra sonrisa no veria yo
    Con esa mirada atenta
    tan indiferente
    cuando me salia de la situacion
  • +
    ¡Colabora con nosotros!
    Envíanos tu versión de esta canción

Letra de Otra como tú
No puede haber
donde la encontraria
otra mujer, igual que tu.
No puede haber (desgracia semejante)
desgracia semejante (encontrar otra mujer)
otra mujer (desgracia semejante)
igual que tu.
Con iguales emociones
con las expresiones
que en otra sonrisa no veria yo.
Con esa mirada atenta
tan indiferente
cuando me salia de la situacion.
Con la misma fantasia
la capacidad de aguantar
el ritmo despiadado
de mi mal humor.
Otra no puede haber
si no existe me la inventare
parece claro que
aun estoy envenenado de ti
es la co-sa mas evidente.
Y me faltan cada noche
todas tus manias
aunque mas enormes
eran si las mias
y me faltan tus miradas
porque se que estan alli
donde yo las puse apasionadas
justo sobre ti,
parece claro.
Otra no puede haber
si no existe me la inventare
parece claro que
aun estoy envenenado de ti.
es la cosa mas preocupante
evidentemente preocupante
no, otra mujer,
no creo.
Esta cancion esta originalmente en C# (Do sostenido)




[Otra como tú acordes][Otra como tú chords]
© LaCuerda.net · notícia legal · privacidade · es · en · pt · contato
DINAMICO