Cifras para Violão e Guitarra » F »Fito & Fitipaldis » Abrazado a la tristeza (Tab)

Abrazado a la tristeza
Fito & Fitipaldis

Letras, cifras e tablaturas para violão, guitarra, piano, ukulele e baixo

  • Aquí está la base de la canción.
    El Mim lleva un juego de dedo en el 2º y 3º traste en la 1ª cuerda
    pa darle un poquito de vidilla.
    A ver si con esto alguien se lo curra y saca los punteos.
    A ve si er pepe le echa 2 huevos y lo saca
    
    (LAm)He salido a la calle abrazado a la tristez(MIm)a
    (LAm)vi lo que no mira nadie y me dio vergüenza y pen(Mim)a
    
    (DO)Los llantos desconsolados (D9)que estrangulan las gargantas(MIm)
    (DO)los ancianos encorvados (D9)parece que la tierra les llama(MIm)
    
    (LAm)La justicia está arrestada por orden de la avarici(MIm)a
    (LAm)el dinero que te salva es el mismo que asesin(MIm)a
    
    (DO)No me des más esperanzas (D9)sé que todo son mentiras(MIm)
    (DO)sacos llenos de agujeros (D9)para guardar alegrías (MIm)
    
    
    (DO)Me da pena que se admire (D9)el valor en la batalla(MIm)
    (DO)menos mal que con los rifles (D9)no se matan las palabras(MIm)
    
    (DO)menos mal que con los rifles (D9)no se matan las palabras(MIm)
  • ------------------------------------------------------------------------
    -----------------------------5-----------5------------------------------
    ---------------7/---9----7-----------7----------------------------------
    -9v--7---------7/---9--------------7--------7---------7--9--10v---7--9--
    --------7------5/---7------------7----------7------7--------------------
    -----------5--------------------------------5---------------------------
    
    
    ------------------------------------|-----------------------------------
    ------------------------------------|-----------------5-----------------
    ------------------------------------|-----7/---9---7--------------------
    -7----------9---------------9-------|-7---7/---9---------7---7-----7----
    ---10-7-10-----9----7---10-----7/9--|-7---5/---7---------7------7-----7-
    ------------------------------------|-5------------------5--------------
    
    
    -------------------------------------|----------------------------------
    ---------------------------5---0-----|---------
  • Am
    e/---------------3------2-2------------2/3--/
    b/-------1-------------------------1-----------/
    G/-----2---2--------------------------2--------/         X2
    d/---2-------2------2---------2---------------/
    a/----------------------------------------------/
    e/----------------------------------------------/
    
    Em
    e/---------------------------------------------------/
    b/-------------------0------------------------------/
    G/---------0---------------2--2-----0--------------/     X2
    d/------2-----2-------------------------------------/
    a/---2-----------2------2--------2-----------------/
    e/----------------------------------------0-3-2-0--/
    
    Estas dos partes se repiten dos veces y luego viene esto:
    
    C
    e/---------------------------------------------------/
    
  •                 Am                                 Em
    E I--------------------------------------------------------------------------
    A I-------0-0---------------0-0---------------0-2-2-2-------2----------------
    D I-------2-2----2-2-2-2-2--2-2----2-2-2-2----0-2-2---2-------2-----------2--
    G I-----2-2-2-2-------------2-2-2-------------0---0-----0-------0-------0----
    B I-0-1---1-1-1-------------1-1-1-------------0-------0---0-------0---0------
    e I-----------0--3-2-2-2-2---------0-3-2-0----------0---------------0--------
    
    
             Am                       Em                     Am
    E I--------------------------------------------------------------------------
    A I-0----------0-----------------------2-----------2--------------2----------
    D I-2------------2------------------2----2----4------2------4-----2----------
    G I-2-2-2/4/5------2-------2/4/2-0--------0-0---0------0-0----0---1----------
    B I-1---------------------------------------0-----0------0-----0--0----------
    e I-0--------------0-3-2-0---------------------------------------------------
    
    
    Verse:
    
    
  • +
    ¡Colabora con nosotros!
    Envíanos tu versión de esta canción






[Abrazado a la tristeza acordes][Abrazado a la tristeza chords]
© LaCuerda.net · notícia legal · privacidade · es · en · pt · contato
DINAMICO