Cifras para Violão e Guitarra » F »Fito & Fitipaldis » Por la boca vive el pez (Tab)

Por la boca vive el pez
Fito & Fitipaldis

Letras, cifras e tablaturas para violão, guitarra, piano, ukulele e baixo

  • intro: SOL LA SIm (x 2)
    
                     SOL
    a-algo, lo que me invade,
    LA              SIm
      todo viene de dentro.
                    SOL
    nunca lo que me sacie,
             LA              SIm
    siempre quiero, lobo hambriento.
    
                  SOL
    a-todo me queda grande
    LA               SIm
      para no estar contigo
                     SOL
    ¿sabes?, quisiera amarte
                      LA             SIm
    siempre un poco más de lo que te pido.
    
    
  • intro: SOL# SIb DOm (x 2)
    
                     SOL#
    a-algo, lo que me invade,
    SIb             DOm
      todo viene de dentro.
                    SOL#
    nunca lo que me sacie,
             SIb             DOm
    siempre quiero, lobo hambriento.
    
                  SOL#
    a-todo me queda grande
    SIb               DOm
      para no estar contigo
                     SOL#
    ¿sabes?, quisiera amarte
                      SIb            DOm
    siempre un poco más de lo que te pido.
    
    
  •                 F    G
    Algo lo que me invade,
                     Am
    todo viene de dentro
                      F
    Nunca lo que me sacie,
              G              Am
    siempre quiero, lobo hambriento.
                    F
    Todo me queda grande
       G             Am
    para no estar contigo.
                      F
    Sabes, quisiera darte
                     G                Am
    siempre un poco más de lo que te pido.
    
    
                  G
    Sabes que soñaré,
    
  • e |----8---4v-----------8-6--3v-------------------8----4-------||
    B |---8-8--4v----------6-----4v----3h4h3h4-------8-8---4-------||
    G |--8-----5v---------7------5v----3h5h3h5------8------5-------||
    D |10------6v--------8------------------------10-------6-------||
    A |------------------------------------------------------------||
    E |------------------------------------------------------------||
    
    e |------------------------------------------------------------||
    B |--8-6---4-3------------------------4-3----------------------||
    G |--------5-3----5-3-------------5-------5---5----------------||
    D |-------------------3s1-----------5-------5------------------||
    A |-----------------------3-1-3--------------------------------||
    E |------------------------------------------------------------||
    
    
    Cm                    Ab
      Algo, lo que me invade,
    Bb                 Cm
      todo viene de dentro.
                   Ab
    
  • INTRO: Ab-Bb-Cm (X2)
    
    e |----8---4v-----------8-6--3v-------------------8----4-------||
    B |---8-8--4v----------6-----4v----6h4--1--------8-8---4-------||
    G |--8-----5v---------7------5v----5h3----------8------5-------||
    D |10------6v--------8------------------------10-------6-------||
    A |------------------------------------------------------------||
    E |------------------------------------------------------------||
    
    e |------------------------------------------------------------||
    B |--8-6---4-3------------------------4-3----------------------||
    G |--------5-3----5-3-------------5-------5--------------------||
    D |-------------------3-1-------5---5-------5------------------||
    A |-----------------------3-3----------------------------------||
    E |------------------------------------------------------------||
    
    v=vibrato
    h=hammer on
    x=Golpear las cuerdas con la mano derecha parando el sonido
    
    
  • Intro
    G---------------------------|
    D---------------------------|
    A-----6-----8---3-3---3-3---| X2
    E--4-4---6-6-------3-----3--|
    
    Algo lo que me invade...             Sabes que soñare...
    G---------------------------|        G---------------------------|
    D---------------------------|        D---------------------------|
    A-----6-----8---3-3---3-3---| X4     A-----8-----6---3-3---3-3---| X2
    E--4-4---6-6-------3-----3--|        E--6-6---4-4-------3-----3--|
    
    Este mar cada vez...
    G---------------------------|
    D---------------------------|
    A-----6-----8---3-3---3-3---| X2
    E--4-4---6-6-------3-----3--|
    
    Tu eres aire yo papel...
    G-----------------0-----0----------------0-----0--|
    D---------------1-----1----------------1-----1----| X2
    A--3-6---3-6--3-----3------3-6---2---3-----3------|
    E4-----4-----------------4-----3---3--------------|
    
    (Solo Saxo)
    G-------------------------------------------------------------------|
    D------5------------------------------------------------------------|
    A--3-3
  • +
    ¡Colabora con nosotros!
    Envíanos tu versión de esta canción
  • Tutorial
    HD
    Como tocar Por la boca vive el pez - Fito TUTORIAL Guitarra Acordes y TABS
    10:08

Letra de Por la boca vive el pez
a-algo, lo que me invade,
todo viene de dentro.
nunca lo que me sacie,
siempre quiero, lobo hambriento.
a-todo me queda grande
para no estar contigo
¿sabes?, quisiera amarte
siempre un poco más de lo que te pido.
b-sabes que soñaré
si no estás, que me despierto contigo
sabes que quiero más,
no sé vivir sólo con cinco sentidos.
este mar cada vez guarda más barcos hundidos
c-tu eres aire. yo, papel.
donde vayas yo me iré
si me quedo a oscuras
luz de la locura, ven y alúmbrame.
c-alguien dijo alguna vez
"por la boca vive el pez"
y yo lo estoy diciendo,
te lo estoy diciendo, otra vez...
a-dime por qué preguntas
cuánto te he echado de menos
si en cada canción que escribo,
corazón, eres tú el acento
a-no quiero estrella errante
no quiero ver la aurora
quiero mirar tus ojos
del color de la coca-cola
b-sabes que soñaré
si no estás, que me despierto contigo
sabes que quiero más,
no se vivir solo con cinco sentidos
este mar cada vez guarda más barcos hundidos
d-no estás conmigo siempre que te canto
yo hago canciones para estar contigo
porque escribo igual que sangro
porque sangro todo lo que escribo
d-me he dado cuenta, cada vez que canto,
que si no canto no sé lo que digo
la pena está bailando con el llanto
y cuando quiera bailará conmigo
d-la vida eterna sólo dura un rato
que es lo que tengo para estar contigo
para decirte lo que nunca canto
para cantarte lo que nunca digo
Cualquier duda, consulta o en lo que pueda ayudar, escriban al mail
alan_heroico@yahoo.com.ar




[Por la boca vive el pez acordes][Por la boca vive el pez chords]
© LaCuerda.net · notícia legal · privacidade · es · en · pt · contato
DINAMICO