Cifras para Violão e Guitarra » F »Fobia » el Microbito (Tab)

el Microbito
Fobia

Letras, cifras e tablaturas para violão, guitarra, piano, ukulele e baixo

  • 1)C                     Am
      Quisiera ser un microbito
             G
      que habita en tu cuerpo
     C                          Am
      ahi para estar muy calientito
            G
      casi todo el tiempo.
    
    
    2)F            G 
      Beber de tu sangre
               C     Em    Am
      y en tu carne descansar
     F          G           C
      de ti me voy a alimentar.
    
    
    1)
      Quiero vivir en una arteria
    
  • C Am G
    
    Y el verso tambien es así.
    
    Luego
    
    F G 
    
    Luego este riff
    
    -----C----------------- --(B) --------------
    
    E||--------------------|--------------------|
    B||-----------1--------|-----------1--------|
    G||o-------0-----------|--------0-----------|
    D||o----2--------------|-----0--------------|
    A||--3-----------------|--2-----------------|
    E||--------------------|--------------------|
    
    -----Am---------------- --Cmaj7-------------
    
  • Bueno aquí les mando esta tab. de una excelente cancion de Fobia, 
    Está 100% correcta.Espero q les agrade, la verdad esta muy sencilla 
    casi siempre se repite lo mismo sólo en algunas partes lleva unos cambios,!!!suerte¡¡¡¡¡
    Dedicada para todos mis amigos!!!
    
    G|----------------------------------------------------------|
    D|----7---7---7---7---5---5---5---5---------5-----------5---|
    A|------------------------------------3-0-5---2-3---0-3-----| (X3)
    E|--5---5---5---5---3---3---3---3---------------------------|
    
    
    G|------------------------------------|
    D|----7---7---7---7---5---5---5---5---|
    A|------------------------------------| (X1)
    E|--5---5---5---5---3---3---3---3-----|
    
    
       0:32                                     ~~~DEJAR SONAR LA CUERDA
    G|----------------------5---4---2------------------|
    D|-33333333-55555555----------------5---5--3~~~5---|
    A|--------------------3---2---0---3---3------------| (X1)
    E|-------------------------------------------------|
    
    
  • intro:
    lam-sol
    
    4:-5---5---5---5-5---3---3---3---3-3------
    3:---7---7---7-----7---5---5---5------5----
    2:-------------------------------------------
    1:-------------------------------------------
    
    
    verso:
    do-lam-sol
      
    4:----3----------3---3----------3-5---5---5---5-5---3---3---3---3-3---
    3:--3---3-3--------3---3-3----------7---7--7------7---5---5---5-----5-
    2:-----------5-5------------5-5------------------------------------------
    1:------------------------------------------------------------------------
    
    
    coro:
    fa-sol-do-mim--lam-mim-fa-sol
        
    4:-1----3------------------5-5-5-3-3-3-1-3-1-0-1-2-3-5-3---
    3:------------3-3-3-2-2-2-------------------------------------
    2:--------------------------------------------------------------
    1:--------------------------------------------------------------
    
    
    eso es todo el bass de el microbito la verdad lo mas 
    chido son los versos, tambien tengo la rola de miel 
    de escorpion por si a alguien le interesa puede escribirm
  • +
    ¡Colabora con nosotros!
    Envíanos tu versión de esta canción
  • Tutorial
    HD
    Como tocar EL MICROBITO en guitarra ~ Fobia ⭐️ PLAYROCKSTARZ
    5:22

Letra de el Microbito
Quisiera ser un microbito
que habita en tu cuerpo
ahi para estar muy calientito
casi todo el tiempo.
Beber de tu sangre
y en tu carne descansar
de ti me voy a alimentar.
1)
Quiero vivir en una arteria
junto a tu corazon
tu cuerpo para mi seria
como una gran mansion.
2)
Correr por tus venas
y en tu sangre siempre estar
de ahi nadie me podra sacar.
1)
Hare una alberca en tu ombliguito
para meterme a nadar
y si me voy mas abajito
nadie me sacara.
2)
Beber de tu sangre
y en tu carne descansar
de ti me voy a alimentar.




[el Microbito acordes][el Microbito chords]
© LaCuerda.net · notícia legal · privacidade · es · en · pt · contato
DINAMICO