Cifras para Violão e Guitarra » F »Francis Cabrel » La Quiero a Morir (Tab)

La Quiero a Morir
Francis Cabrel

Letras, cifras e tablaturas para violão, guitarra, piano, ukulele e baixo

  • Intro: C - C/B - C/D
    
    Arpegio: B-I-II-III
    
    C
    Y yo que hasta ayer solo fui un holgazán
      C/B
    Hoy soy el guardián de sus sueños de amor
                     Am
    La quiero a morir
    
     Dm
    Podeis destrozar todo aquello que veis
     Fm                                      G
    Porque ella de un soplo lo vuelve a crear
     C                         C/B
    Como SI nada, como SI  nada
                    Am
    La quiero a morir
    
    
  • DO 
    Y yo que hasta ayer solo fui un holgazán
      DO/SI
    Hoy soy el guardián de sus sueños de amor
                     LAm
    La quiero a morir
    
     REm
    Podeis destrozar todo aquello que veis
     FAM*                                     SOL 
    Porque ella de un soplo lo vuelve a crear
     DO                        DO/SI
    Como SI nada,  como SI nada
                    LAm
    La quiero a morir
    
    
    DO
    Ella borra las horas en cada reloj
    
    
  • Intro: C - Em (G) - C
    Solo corregi algunas notas para que la entiendan mejor
    
    C
    Y yo que hasta ayer solo fui un holgazán
      Em (G)
    Hoy soy el guardián de sus sueños de amor
                     Am
    La quiero a morir
    
     Dm
    Podeis destrozar todo aquello que veis
          F                                  G
    Porque ella de un soplo lo vuelve a crear
            C                 Em (G)
    Como SI nada,  como SI nada
                    Am
    La quiero a morir
    
    
    
  •        C                 E         D
      E ---------------------------------------------------------------
      A ---3---------------3^2-------2^5-------------------------------
      D ---------------------------------------------------------------
      G -----0---------0-------0---------0------------------------------
      B -------1----1------------0---------0----------------------------
      e ----------0----------------0---------0--------------------------
    
        DOS VECES
    
     
     (1)
     C              
     Y YO QUE HASTA AYER SOLO FUI UN OLGAZAN
           Em
     Y HOY SOY EL GUARDIAN DE SUS SUEÑOS DE AMOR
                Am
     LA QUIERO A MORIR
      Am
     PODEIS DESTROZAR TODO AQUELLO QUE VEIS
    
  •     C
    E:-----------0--------0---------0---------0-----------------
    B:---------1--------1---------1---------1-------------------
    G:-------0--------0---------0---------0---------------------
    D:-------------2-------------------0------------------------
    A:----3------------------2----------------------------------
    E:----------------------------------------------------------
    
    PARA EL ARPEGIO DEL RESTO DE LA CONCION ES:
        C
    E:-----------0-------0------0------0--
    B:---------1-------1------1------1----
    G:-------0-------0------0------0------
    D:------------2--------------2--------
    A:----3---------------3---------------
    E:------------------------------------
    
        Em
    E:-----------0-------0------0------0--
    B:---------1-------1------1------1----
    
  • +
    ¡Colabora con nosotros!
    Envíanos tu versión de esta canción
  • Tutorial
    HD
    Como tocar LA QUIERO A MORIR en GUITARRA francis cabrel
    5:21

Letra de La Quiero a Morir
Arpegio: B-I-II-III
Y yo que hasta ayer solo fui un holgazán
Hoy soy el guardián de sus sueños de amor
La quiero a morir
Podeis destrozar todo aquello que veis
Porque ella de un soplo lo vuelve a crear
La quiero a morir
Ella borra las horas en cada reloj
Y me ayuda a pintar transparente el dolor
Con su sonrisa
Me dibuja una torre desde el cielo hasta aquí
Y me cose unas alas y me ayuda a subir
A toda prisa, a toda prisa
La quiero a morir
Conoce bien cada guerra
Cada herida cada ser
Conoce bien cada guerra, de la vida
Y del amor también
Me dibuja un paisaje, me lo hace vivir
En un bosque de lápiz se apodera de mí
Y me atrapa en un lazo que no aprieta jamás
Como un hilo de seda que no puedo soltar
No quiero soltar, no quiero soltar
La quiero a morir
Cuando trepo a sus ojos me enfrento al mar
Dos espejos de agua encerrada en cristal
Ser solo suyo, ser solo suyo
Conoce bien cada guerra
Cada herida cada ser
Conoce bien cada guerra, de la vida
Y del amor también
Y yo que hasta ayer solo fui un holgazán
Hoy soy el guardián de sus sueños de amor
La quiero a morir
Podeis destrozar todo aquello que veis
Porque ella de un soplo lo vuelve a crear
La quiero a morir
x - Vase




[La Quiero a Morir acordes][La Quiero a Morir chords]
© LaCuerda.net · notícia legal · privacidade · es · en · pt · contato
DINAMICO