Cifras para Violão e Guitarra » F »Franco de Vita » Te veo venir soledad (Tab)

Te veo venir soledad
Franco de Vita

Letras, cifras e tablaturas para violão, guitarra, piano, ukulele e baixo

  •          G#         Fm        A#m        D#7
    e-----4-----1----1-----1----1-----1----3-----3---
    B---------1----------1----------2----------2-----
    G-------1----------1----------3----------3-------
    D---------------------------3----------1---------
    A------------------------------------------------
    E-----4----------1-------------------------------
    
    
    Este arpegio está hecho sin tomar en cuenta el capo
    
    Excelente melodía
    
    
    G#           Fm   A#m
    No me digas que
       D#7   G#      Fm    A#m
    acabamos de comprender
            D#7      G#         Fm  A#m
    que lo nuestro llego a su final
    
  • Intro: G  Em  Am  D
    
    1)
    G         Em      Am
    No me digas que
        D     G       Em     Am  
    acabamos de comprender
             D         G      Em       Am  
    que lo nuestro llegó a su final
             D     G         Em        Am
    que sin mi tú puedes continuar
             D        G         Em  Am  D
    Te veo venir, soledad.
    
    1)
    Y no me digas que
    no merezco lo que recibí
    y que yo nunca te comprendí
    pero cuanto esperabas de mí
             D        Em         D 
    
  •          G                E/D             Am         D7
    e|---------------|----------------|-------------3--2--0------|
    B|--3--------3---|---3--------3---|------0--1------1------3--|
    G|-----0---------|------0---------|------0--2------2---------|
    D|-------0-------|---------2------|--------------------------|
    A|---------------|----------------|--0-----------------------|
    E|--3------------|---0------------|--------------------------|
    
    se repite menos lo ultimo que es asi
    
    
            Am
    e|------------0-------------|
    B|-----0--1-----------------|
    G|-----0--2------2/4---2--0-|
    D|--------------------------|
    A|--0-----------------------|
    E|--------------------------|
    
    
    
  • Ab           Fm   Bbm
    No me digas que
       Eb7   Ab      Fm    Bbm
    acabamos de comprender
            Eb7      Ab         Fm  Bbm
    que lo nuestro llego a su final
     Eb7            Ab        Fm    Bbm
    que sin mi tu puedes continuar
            Eb7       Ab   Fm  Bbm  Eb7
    Te veo venir soledad
      Ab          Fm   Bbm
    Y no me digas que
         Eb7       Ab     Fm   Bbm
    no merezco lo que recibí
             Eb7   Ab      Fm  Bbm
    y que yo nunca te comprendí
     Eb7            Ab        Fm  Bbm
    pero, cuanto esperabas de mi?
           Eb7     Fm       Eb7
    Te veo venir soledad
    
  • +
    ¡Colabora con nosotros!
    Envíanos tu versión de esta canción

Letra de Te veo venir soledad
No me digas que
acabamos de comprender
que lo nuestro llego a su final
que sin mi tu puedes continuar
Te veo venir soledad
Y no me digas que
no merezco lo que recibí
y que yo nunca te comprendí
pero, cuanto esperabas de mi?
Te veo venir soledad
Que las noches no tienen final
que la vida sin ti no me vale de na'
otro golpe para el corazón
que dejaste tirado aqui en este rincón
Te veo venir soledad
Y no me digas que
que algun dia tal vez volverás
que por ahora no hay nada que hablar
muchas cosas, si, para olvidar
Te veo venir soledad
Yo no te olvidaré
y no me importa si lo creas o no
te necesito mas de lo normal
lo siento si no lo supe expresar
si no supe como demostrar
pero es la pura verdad
Que las noches no tienen final
que la vida sin ti no me vale de na'
otro golpe para el corazón
que dejaste tirado aqui en este rincón
por un amor que se niega a morir
por lo que tu mas quieras no lo dejes asi
que lo nuestro no puede acabar
que es mas fuerte de lo que podemos pensar
Por eso.... te veo venir soledad
Y yo te esperaré
todo el tiempo que quieras, da igual
si quieres busca en otro lugar
y si lo encuentras te puedes quedar
Te veo venir soledad
te veo venir soledad
te veo venir soledad




[Te veo venir soledad acordes][Te veo venir soledad chords]
© LaCuerda.net · notícia legal · privacidade · es · en · pt · contato
DINAMICO