Cifras para Violão e Guitarra » F »Frankie Ruiz » La Rueda (Tab)

La Rueda
Frankie Ruiz

Letras, cifras e tablaturas para violão, guitarra, piano, ukulele e baixo

  • e|-----------------------------------------------|
    B|-----------------------------------------------|
    G|--------------------------------------1--3-----|        x2
    D|------3--------1-----------3-------------------|
    A|------------------3----------------------------|
    E|---1-------------------1-----------------------|
    
    Trompetas: G7m C – A - Am7 - Dm7 - Gm7 – Cm7 - F
    
    e|-----------------------0-0-0-0--1-1------1--3--5-----5----3--1-------|
    B|---3------------------------------------3----------------------------|
    G|-------3--0----------------------------------------------------------|
    D|---------------2-----------------------------------------------------|
    A|---------------------------------------------------------------------|
    E|---------------------------------------------------------------------|
    
               F         Dm     Gm7
    Tú eres la rueda, yo soy el camino
            C                 F
    Pasas encima de mí, dando vueltas
    
  • +
    ¡Colabora con nosotros!
    Envíanos tu versión de esta canción

Letra de La Rueda
Trompetas: G7m C – A - Am7 - Dm7 - Gm7 – Cm7 - F
Tú eres la rueda, yo soy el camino
Pasas encima de mí, dando vueltas
Tu rodaras, porque ese es tu destino
Sin encontrar, nadie que te detenga.
Quise pararte, pero ibas sin frenos
y tus rodadas me hicieron pedazos
Por que no quieres, los caminos buenos
y agarras todo lo que hay en tus pasos.
¿Que que?
Trompetas: G7m C – A - Am7 - Dm7 - Gm7 – Cm7 - F
Yo que soñaba, con ser en tu vida
El terminar, de tus vueltas al mundo
Te vi. pasar, como un ave perdida
De aquí pa allá, sin agarra tu mundo
Corte: [Cm7-Cm7]
Ninguna rueda, me había lastimado
y me pasaron de las más pesadas
Pero contigo, quede destrozado
Por que no hiciste ninguna parada.
Yo que te tenia, siempre a mi lado,
y el día menos pensado, tú te me fuiste de mi lado.
Pero ay, qué barbaridad, y yo sin moverme del mismo lugar.
Ninguna mujer, a mí me había lastimado,
Pero contigo, yo quede destrozado.
Pero ay, qué barbaridad, y yo sin moverme del mismo lugar.
Yo que soñaba, con ser en tu vida,
El terminar de tus vueltas al mundo, te vi pasar como un ave perdida.
Pero ay, qué barbaridad, y yo sin moverme del mismo lugar.
Quise pararte, pero no me escuchabas,
Tu te querías ir con él, y de mi lado tu te alejabas
Pero ay, qué barbaridad, y yo sin moverme del mismo lugar.
Pero ay, qué barbaridad, y yo sin moverme del mismo lugar.
Yo que a ti te daba, todita mi lana,
No supiste apreciar, y seguiste con tus rodadas.
Pero ay, qué barbaridad, y yo sin moverme del mismo lugar.
Tú eres la rueda, yo soy el camino,
Pasas encima de mí, buscando tu destino.
Pero ay, qué barbaridad, y yo sin moverme del mismo lugar.
Te vi pasar, como un ave perdida,
De aquí para allá, sin agarrar tu rumbo, oye mama.
Pero ay, qué barbaridad, y yo sin moverme del mismo lugar.
Pero, ay que barbaridad, oye que barbaridad,
Tú lo perdiste todo y aquí tú no tienes na.
Pero ay, qué barbaridad, y yo sin moverme del mismo lugar.
¿Que que?
Remate: E-F
Instagram: @pariah.66




[La Rueda acordes][La Rueda chords]
© LaCuerda.net · notícia legal · privacidade · es · en · pt · contato
DINAMICO