Cifras para Violão e Guitarra » F »Los Fundamentalistas del Aire Acondicionado » El tesoro de los inocentes (Tab)

El tesoro de los inocentes
Los Fundamentalistas del Aire Acondicionado

Letras, cifras e tablaturas para violão, guitarra, piano, ukulele e baixo

  • e|--3-2-----------------|---|---10----|---|
    B|------5-3-5-----------|---|------8--|---|
    G|----------------------|-x3|---------|-x6|
    D|----------------5--7--|---|---------|---|
    A|----------------3--5--|---|---------|---|
    E|----------------------|---|---------|---|
    
    Riff 2
    e|----------------|----|
    B|----------------|----|
    G|----------------|-x2-|  Después hace RE
    D|--10-9-7----7-9-|----|
    A|---------10-----|----|
    E|----------------|----|
    
    
    MI5
    
    DO5      RE5       MI5
    El tesoro que no ves
    
  • INTRO: E5  C5  D5 (X3)  C5 (TODO X2)
           G5  D5
    
    E5    C5 D5
      El tesoro que no ves
    E5      C5  D5
      La inocencia que no ves
    E5      C5 D5         C5
      Los milagros que van a estar de tu lado
                          E5         C5 D5
      Cuando comiences a leer de los labios
               E5        C5 D5
      Y a ignorar los embustes y gustar
    E5        C5 D5        C5
      Con tu lengua de las aguas que son dulces
    
      Aunque te sientas mal
    
    
            G5                          D5
    
  • INTRO(MIm DO RE)x3 DO
         (MIm DO RE)X3 DO
            SOL RE
    
    MIm   DO      RE  MIm
    El tesoro que no ves
           DO        RE    MIm
    La inocencia que no ves
          DO         RE   DO
    Los milagros que van a estar de tu lado
    
    Cuando comiences a:
    MIm       DO
     leer de los labios
    RE      MIm        DO       MIm
    Y a ignorar los embustes y gustar
            DO       RE    DO
    Con tu lengua de las aguas que son dulces
    
    Aunque te sientas mal
    
  • B//--8-7-5---5---8-5------8-7-5---5---8-5--------
    G//--------7--------------------7----------------
    D//----------------------------------------------
    A//----------------------------------------------
    E//----------------------------------------------
    
    e//----------------------------------------------
    B//--8-7-5---5---8-5------15--15--15--15--15-----
    G//--------7----------------12--12--12--12--12---
    D//----------------------------------------------
    A//----------------------------------------------
    E//----------------------------------------------
    
    
    e//----------------------------------------------
    B//--8-7-5---5---8-5------8-7-5---5---8-5--------
    G//--------7--------------------7----------------
    D//----------------------------------------------
    A//----------------------------------------------
    E//----------------------------------------------
    
  •    Riff de Base            DO5
    e||--------------------|  |----------------------||
    B||--8-7-5---5---8-7---|  |-15--15--15--15--15---||
    G||--------7-----------|  |---12--12--12--12--12-||
    D||--------------------|  |----------------------||
    A||--------------------|  |----------------------||
    E||--------------------|x3|----------------------||
       Riff de Base            DO5
    e||--------------------|  |----------------------||
    B||--8-7-5---5---8-7---|  |-15--15--15--15--15---||
    G||--------7-----------|  |---12--12--12--12--12-||
    D||--------------------|  |----------------------||
    A||--------------------|  |----------------------||
    E||--------------------|x3|----------------------||
       SOL5                     RE5
    e||---------------------|  |-----------------------------------||
    B||-13-12-10----10---12-|  |-8--10--8--10--8--10--12--10--8-8^-||
    G||----------12---------|  |-----------------------------------||
    D||---------------------|  |-----------------------------------||
    A||---------------------|  |-----------------------------------||
    
  • +
    ¡Colabora con nosotros!
    Envíanos tu versión de esta canción

Letra de El tesoro de los inocentes
Riff 2
El tesoro que no ves
La inocencia que no ves
Los milagros que van a estar de tu lado
Cuando comiences a leer de los labios
Y a ignorar los embustes y gustar
Con tu lengua de las aguas que son dulces
Aunque te sientas mal
Si no hay amor que no haya nada entonces, alma mía
¡No vas a regatear!
Un hermoso día el de hoy
Ay! Que bello día es hoy!
Esta para desatar nuestra tormenta
Que va a tronar por el dolor
Juegan a primero yo y después a también yo
Y a las migas para mi y cierran el juego porque ya saben que
El tonto nunca puede oler al diablo vida mía ni si caga en su nariz
Riff 1 (x2) - Riff 2 (x1)
Esa mancha que esta allí
Por allí… en el suelo allí
Y en tu bella cicatriz
Parece sangre y sin embargo sonreís
El tesoro que no ves
La inocencia que no ves
El placer es tan oscuro como el culo de un topo negro
hay amor que no haya nada entonces, alma mía
¡No vas a regatear!
Placer que es cruel
(le hechas el guante
sin lagrimas…
a tu pena allí nomás
…y el mundo allí nomás.
El sol cocina lento…
Placer que es cruel
(vos siempre estás con una excusa a flor de labios…
sin lagrimas…
con tus dolores allí nomás)
y el mundo allí nomás, sin vida
con tu sangre en el suelo…




[El tesoro de los inocentes acordes][El tesoro de los inocentes chords]
© LaCuerda.net · notícia legal · privacidade · es · en · pt · contato
DINAMICO