Cifras para Violão e Guitarra » F »Los Fundamentalistas del Aire Acondicionado » Nike es la cultura (Tab)

Nike es la cultura
Los Fundamentalistas del Aire Acondicionado

Letras, cifras e tablaturas para violão, guitarra, piano, ukulele e baixo

  • B5           A  B5        A  B5          A B5      A
    Vas corriendo, con tus Nikes, y las balas, van detras.
    B5         A B5          A B5          A   B5      A
    Lo que duele no es la goma, sino su velocidad.
    B5         A B5                  A   B5            A       B5      A
    En el caladero no hay gato mas triste sin moda de callejon,
    B5                 A  B5              A  B5               A   B5      A
    si Nike es la cultura, Nike es tu cultura, Nike es la cultura hoy.
    
    
    Almacenes coloridos a los que llamas ciudad del mueble,
    con canciones indoloras con motivo musical.
    Que el pasado acabe, y a su fin que llegue, plantando la jeta hoy
    si Nike es la cultura, Nike es tu cultura, Nike es la cultura hoy.
    
    Mientras Michael se retira, la cadena ESPN, baby,
    hay complementos castellanquis y galopa choco-ideal.
    
    (Solo de guitarra y trompeta)
    
    
  • SIm
    vas corriendo con tus nikes
    y las balas van detras
    lo que duele no es la goma
    sino su velocidad
    
    en el cagadero no hay gato mas triste
    sin moda de callejon
    si nike es la cultura.nike es tu cultura
    nike es la cultura hoy
    
    almacenes coloridos
    a los que llamas ciudad te envuelven
    con canciones indoloras
    como hilo musical
    
    que el pasado acabe, y a su fin q llegue
    plantando la jeta hot
    SI nike...
    
    
  • Intro: ( O:56 min.) aprox.
    *****
    
    *Guitarra 1:
    E|----------------------|----------------------|----|
    B|----------------------|----------------------|----|
    G|----------%-----------|----------%-----------|-X2-|
    D|----------------------|----------------------|----|
    A|----------------------|----------------------|----|
    E|----------------------|----------------------|----|
    
    *Guitarra 2:
    E|----------------------|----------------------|----|
    B|----------------------|----------------------|----|En la segunda
    G|----------------------|----------------------|-X2-|vuelta empieza
    D|----------------------|----------------------|----|con distorción y
    A|------------------5-7-|------------------5-7-|----|sin palm mute
    E|-7--7-7--7-7--7-7-----|-7--7-7--7-7--7-7-----|----|
    PM .  . .  . .  . .       .  . .  . .  . .
    
    
    *Guitarra 1:
    E|---------------------|---------------------|--7--7-7---7-7---7-7--|
    B|-----------(7)~------|---------------------|--7--7-7---7-7---7-7--|
    G|---(9b)~-------------|---------%--
  • +
    ¡Colabora con nosotros!
    Envíanos tu versión de esta canción

Letra de Nike es la cultura
Vas corriendo, con tus Nikes, y las balas, van detras.
Lo que duele no es la goma, sino su velocidad.
En el caladero no hay gato mas triste sin moda de callejon,
si Nike es la cultura, Nike es tu cultura, Nike es la cultura hoy.
Almacenes coloridos a los que llamas ciudad del mueble,
con canciones indoloras con motivo musical.
Que el pasado acabe, y a su fin que llegue, plantando la jeta hoy
si Nike es la cultura, Nike es tu cultura, Nike es la cultura hoy.
Mientras Michael se retira, la cadena ESPN, baby,
hay complementos castellanquis y galopa choco-ideal.
Jovencitos peligrosos, los papis no dan mas, no bancan,
carroñeros, que te rajan la careta de MTV Latina.
Operarios con salario de miseria, vidas que importan eso.
Tengo preso 15 años, las Jordan son para mi.
¡Vos gritas no logo!, ¡o no gritas no logo!, ¡o gritas no logo no!
si Nike es la cultura, Nike es tu cultura, Nike es la cultura hoy.
Es que el Diablo esta en el cielo, pero aparte vos sabes eso.
Masturburguer, da cupones, ¡y una opera Hip-Hop baby!
Nike es la cultura, Nike es tu cultura, Nike es la cultura hoy.
Nike es la cultura, Nike es tu cultura, Nike es la cultura hoy.
Terminar con B5




[Nike es la cultura acordes][Nike es la cultura chords]
© LaCuerda.net · notícia legal · privacidade · es · en · pt · contato
DINAMICO