Cifras para Violão e Guitarra » G »Los Gardelitos » Gardeliando (Tab)

Gardeliando
Los Gardelitos

Letras, cifras e tablaturas para violão, guitarra, piano, ukulele e baixo

  • Intro:  (E F#m G#m F#m E) x 8
    
    E                G#m
    Solo la musica esta en mi corazon
    E                 G#m
    solo la musica puede darme amor
    solo la musica esta a mi alrededor.
    Estan haciendo un faso
    a la vuelta de la esquina.
    Estan tomando un vino
    o tomando cocaina
    y si no fuera asi,
    que ciudad tan aburrida.
    
    E                 G#m        F#m
     De Tablada, a Lanus
    E                      G#m        F#m
     de Mataderos, hasta Flores
    de Barracas, a La Boca
    de Chacarita a La Paternal.
    
  • E                G#m               F#m
    Solo la musica esta en mi corazon
    E                 G#m            F#m
    solo la musica puede darme amor
    E                 G#m            F#m
    solo la musica esta a mi alrededor.
    E                           G#m                 F#m
    Estan haciendo un faso a la vuelta de la esquina.
    E                         G#m                  F#m
    Estan tomando un vino o corriendo alguna mina
    E                       G#m                F#m
    y si no fuera asi, que ciudad tan aburrida.
    
    
    
    E                 G#m        F#m
     De Tablada, a Lanus
    E                      G#m        F#m
     de Mataderos, hasta Flores
    E                 G#m            F#m
    
  • e|-------------------------------------------------|
    B|-------------------------------------------------|
    G|-------------------------------------------------|X2
    D|-------------------------------------------------|
    A|-------------------------------------------------|
    E|-0-0-0-0-0-0-0-0-0-0-2-4--4-4-4-4-4-4-4-4--4-2-0-|
    
    e|-0-0-------0----------------------------------0-----------------------|
    B|-0---0-------0--4h5-4-------------4h5-4--------0----------------------|
    G|-1-----0h1------------6-4-3-------------6-4-3---0h1-------------------|
    D|-2--------------------------6-5-6-----------------------4-6-4----4h5-4|
    A|-2--------------------------------------------------2/7-------7-6-----|
    E|-0--------------------------------------------------------------------|
    
    e|---------------------------------------------------------------------|
    B|---------------------------------------------------------------------|
    G|---------------------------------------------------------------------|
    D|----4-6-4-----------4p6-666-4-------------4-6-4----------------------|
    A|-/7-------6/7-6-6-------------7-6-7----/7-------7-6-6-6-6-6p7-6-5-6--|
    E|---------------------------------------------------------------------|
    
  • wenas ak les dejo esta tablatura calfiquen esta tmb califica
     corazon bailando al viento
    tablatura de roberto gomez bolaños y tablaturas para bajo de una vela
    
    el tema es todo asi...
    
    G|-----------------------------------------|
    D|-----------------------------------------|X
    A|-----------------------------------------|2
    E|-0-0-0-0-0-0-0-0-0-2-4-4-4-4-4-4-4-4-4-2-|
    
    
    y cuando empieza la part "si no te gusta lo q ves..."
    
    ase asi
    
    
    
    
        si no te gusta lo q ves...
    G|-4--4--4--4--4--4--4--4--7--7--7--7--6--7--6---7--6-|
    D|-4--4--4--4--4--4--4--4--7--7--7--7--6--7--6---7--6-|
    A|-2--2--2--2--2--2--2--2--5--5--5--5--4--5--4---5--4-|
    E|----------------------------------------------------|
    
    
    
      caretas caretas ca-re-tas  ca-re-tas careetaaaaaas
    G|----------------------------------------------|
    D|-3-4-5---6-7-8---9-10-11---12-13--14-15-16-17-|
    A|-3-4-5---6-7-8---9-10-11---12-13--14-15-16-17-|
    E|-1-2-3---4-5-6---7--8--9---10-11--12-13-14-15-|
  • +
    ¡Colabora con nosotros!
    Envíanos tu versión de esta canción

Letra de Gardeliando
Estan haciendo un faso
a la vuelta de la esquina.
Estan tomando un vino
o tomando cocaina
y si no fuera asi,
que ciudad tan aburrida.
De Tablada, a Lanus
de Mataderos, hasta Flores
de Barracas, a La Boca
de Chacarita a La Paternal.
La sonrisa de Gardel
ilumina la ciudad,
la ciudad que alguna vez
era totalmente de el.
Ahora es tuya la ciudad,
ahora es tuya y nada mas.
Si no te gusta lo que vez
Andate a vivir a Nueva York
Si no te gusta como soy
andate a morir a Nueva York
Caretas, caretas, caretas




[Gardeliando acordes][Gardeliando chords]
© LaCuerda.net · notícia legal · privacidade · es · en · pt · contato
DINAMICO