Cifras para Violão e Guitarra » G »Gloria Stefan » Mi Tierra (Tab)

Mi Tierra
Gloria Stefan

Letras, cifras e tablaturas para violão, guitarra, piano, ukulele e baixo

  •                   REm
                      De mi tierra bella, de mi tierra santa,   
                                                                         
                      oigo ese grito de los tambores
                                                    LA
                      y los timbales a "Cumbanch ",
                             SOLm                        REm
                      ese preg¢n que canta un hermano
                                                    LA
                      que de su tierra vive lejano
                                                         REm
                      y que el recuerdo le hace llorar;
                                 SOLm                  REm
                      una canci¢n que vive entonando,
                                                         LA 
                      es su dolor de su propio llanto
                                            REm
                      y se le escucha veraz:
    
                                            LA
    
  • Que tal raza pues aqui subiendo mi transcricpción para el bajo
    de esta rolita que esta bien chida y sabrosonaun saludo a toda la
    banda que gusta de la buena música como esta. Un saludo al buen Tío
    que ayudo en gran medida a que sliera.
    
    Bueno jóvenes manos a la obra la rola esta en D y es muy
    quisquillosa asi que agudicen el oido ahi esta la clave
    
    Inicio (0:20)
      D
    G|------------|
    D|--5-0-3-0-5-|
    A|------------|
    E|------------|
    
    Pre-coro 1 (0:40)
      C            D            Eb
    G|------------|------------|------------|-------|
    D|------------|------------|------------|-------|
    A|--3---3---3-|--5---5---5-|--6---6---6-|-3-5-6-|
    E|----3---3---|----5---5---|----6---6---|-------|
    
    Coro 1 (0:50)
      F                    G                     F                  G
    G|--------------------|--------------------|-------------------|---------|
    D|-3---3-----3---3----|-5---5-----5---5----|-3---3-----3---3---|-3-5-5~~~|
    A|---3---3-6---3---3-6|---5---5-8---5---5-8|---3---3-6---3---3-|---------|
    E|-----
  • afinacion: E A D G
    Tiempo: 2/4
    
    
     |       |        |       |        |       |        |       |
    |----------------|----------------|----------------|----------------|
    |----------------|  ocho barras de intro sin bajo  |----------------|
    |----------------|----------------|----------------|----------------|
    |----------------|----------------|----------------|----------------|
    
     |       |        | + ocho barras de intro con bajo |       |
    |------------6---|----------------|------------6---|----------------|
    |------6-6-------|------6-6-------|------6-6-------|------6-6-------|
    |4---------------|------------4---|----------------|------------4---|
    |----------------|----------------|----------------|----------------|
    
     |       |        |       |        |       |        |       |
    |------------6---|----------------|------------6---|----------------|
    |------6-6-------|------6-6-------|------6-6-------|------7-6-------|
    |----------------|------------4---|----------------|------------4---|
    |--------
  • +
    ¡Colabora con nosotros!
    Envíanos tu versión de esta canción

Letra de Mi Tierra
De mi tierra bella, de mi tierra santa,

oigo ese grito de los tambores
y los timbales a "Cumbanch ",
ese preg¢n que canta un hermano
que de su tierra vive lejano
y que el recuerdo le hace llorar;
una canci¢n que vive entonando,
es su dolor de su propio llanto
y se le escucha veraz:
la tierra te duele, la tierra te da
en medio del alma cuando t£ no est s.
La tierra te empuja de ra¡z y cal
la tierra suspira si no te ve m s.
La tierra donde naciste no la puedes olvidar
porque tiene sus ra¡ces y lo que dejas atr s.
La tierra te duele..... cuando t£ no est s.
Siguen los pregones, la melancol¡a,
y cada noche junto a la luna
sigue el guajiro entonando el sol.
Y cada calle que va a mi pueblo
tiene un quejido, tiene un lamento,
tiene nostalgia, como su voz.
Esa canci¢n que sigue entonando
porque la sangre sigue llegando
con m s fuerza al coraz¢n.
La tierra te duele.... si no te ve m s.
Tiene un quejido, tiene un lamento.
Nunca te olvido, la llevo en mis sentimientos, si, se¤or.
Oigo ese grito, vive el recuerdo.
Corre en mi sangre, la llevo por dentro, ­como no!
Canto de mi tierra, mete y saca,
sufro ese dolor que hay en su alma.
Aunque est, lejos, yo la siento
y un d¡a regreso, yo lo s,.
Siguen los pregones, la melancol¡a.
Cada noche, junto a la luna sigue el guajiro entonando el sol.
Cada calle va a mi pueblo tiene un quejido, tiene un lamento.
La nostalgia de su voz me llega con fuerza al coraz¢n.
La tierra te duele..... si no te ve m s.




[Mi Tierra acordes][Mi Tierra chords]
© LaCuerda.net · notícia legal · privacidade · es · en · pt · contato
DINAMICO