Cifras para Violão e Guitarra » G »Gondwana » Aire de Jah (Tab)

Aire de Jah
Gondwana

Letras, cifras e tablaturas para violão, guitarra, piano, ukulele e baixo

  • Intro:   Gm (x4) / Cm (x2) / F (x2)
    
    
    
               Gm
    Esta polución me va a matar
              Cm          F
    si no respiro Aire de Jah
               Gm
    y mi corazón no sentirá
               Cm             F
    si mis latidos no son de amor   [x2]
    
    
    Gm             Cm                     F
        Muy difícil se vuelve cada vez más todo esto
    Gm                    Cm              F
        la razón y la verdad se paran a escuchar
    Gm                   Cm    F                      Gm
        ahora que es la vanidad la ruta a seguir la humanidad
    
  • Esta polución me va a matar…
    
    G||---------------|------------|---------|------------|---------|
    D||---------------|------------|---------|------------|---------|
    A||--5--3---------|-----5--5---|---------|-----6-----6|-----5---|
    E||--------6--5--3|--3--------3|--3--1--3|--6-----6---|--3-----3|
    
    G||---------------|------------|---------|------------|---------|
    D||---------------|------------|---------|------------|---------|
    A||--5--3---------|------------|---------|-----6-----6|-----5---|
    E||--------6--5--3|--3--1--1--3|--3--1--3|--6-----6---|--3-----3|
    
    G||---------------|------------|---------|------------|---------|
    D||---------------|------------|---------|------------|---------|
    A||--5--3---------|-----5--5---|---------|-----6-----6|-----5---|
    E||--------6--5--3|--3--------3|--3--1--3|--6-----6---|--3-----3|
    
    G||---------------|------------|---------|------------|
    D||---------------|------------|---------|------------|
    A||--5--3---------|------------|---------|-----6-----6|
    E||--
  • esta es mi primera transcripción espero les sirva las notas son
    las que se escuchan asi como esta en el CD así que a darle con todo al bajo
    saludos desde la Grecia del salvador Santa Elena
       BIS 2
    G│----------------------------│
    D│----------------------------│
    A│5-3-------5-5-----------6-6-│
    E│---6-5-3-3---3--3-0-3--6-6--│
    
    G│-------------------------------------------│
    D│-------------------------------------------│
    A│-5-5-3---------------------6-6-5—-(5)2ª VEZ│
    E│5-5---6-5-3-3-0-0-3-3-0—3-6-6-5-5----------│
       BIS 6
    G│----------------------------------------------│
    D│----------------------------------------------│
    A│---------5--5--3--3-----------6---------------│
    E│--3-3----------------6--3--6---6-6-3-5-5--1—--│
    
    
       BIS 3
    G│---------------│-----------------------│
    D│---------------│-----------------------&
  • +
    ¡Colabora con nosotros!
    Envíanos tu versión de esta canción

Letra de Aire de Jah
Esta polución me va a matar
si no respiro Aire de Jah
y mi corazón no sentirá
si mis latidos no son de amor [x2]
Muy difícil se vuelve cada vez más todo esto
la razón y la verdad se paran a escuchar
ahora que es la vanidad la ruta a seguir la humanidad
el brillo encandiló
y la desidia ocupo el lugar
de lo que fue antes un gran fuego en el mirar
las ganas del corazón y alma perdida en la maldad
Esta polución me va a matar
si no respiro Aire de Jah
y mi corazón no sentirá
si mis latidos no son de amor [x2]
Razones para enloquecer no faltarán, no
de Babilonia es el plan conquistarte
juega su juego y tranquilo estarás
mientras dure su fiesta
la turbulencia que no deja ver
de la sabiduría se olvidan
cada vez mas acciones sin querer tener
un poco de prudencia
Esta polución me va a matar
si no respiro Aire de Jah
y mi corazón no sentirá
si mis latidos no son de amor [x2]
Cuál es el afán de fabricar tanto dolor
cuándo se olvido el respeto y donde esta el valor
cuántas mas tendrán que desgastar todo el sudor
en las frías manos que se adueñan del mundo
yo quiero fuego de purificación
para quemar el mal que causa tanta desunión
se sabe que mala acción atrae mala reacción
Jah love será la clave para la sanación
Esta polución me va a matar
si no respiro Aire de Jah
y mi corazón no sentirá
si mis latidos no son de amor [x1]




[Aire de Jah acordes][Aire de Jah chords]
© LaCuerda.net · notícia legal · privacidade · es · en · pt · contato
DINAMICO