Cifras para Violão e Guitarra » G »Grupo Firme » Pídeme (Tab)

Pídeme
Grupo Firme

Letras, cifras e tablaturas para violão, guitarra, piano, ukulele e baixo

  • E|---7-7-7-7-7-5--5-7-5-2-3------------5-7-
    B|---8-8-8-8-8-7--7-8-7-3-5-------5-3--7-8-
    G|--------------------------4-4------------
    D|-9---------------------------------------
    A|-----------------------------------------
    E|-----------------------------------------
    
    
    E|---7-7-7-7-7-5---5-7-5-2-3-----------------------------2-3-2--5-7-
    B|---8-8-8-8-8-7---7-8-7-3-5---3h5-3-------2h3-2h3-------3-5-3--7-8-
    G|-----------------------------------5---4---------2----------------
    D|-9-----------------------------------5-------------2-5------------
    A|------------------------------------------------------------------
    E|------------------------------------------------------------------
    
    G            D         Em
    Pídeme si quieres que no me equivoque
                C             G
    Pídeme los días de cada semana
                 D                      Em
    
  • +
    ¡Colabora con nosotros!
    Envíanos tu versión de esta canción

Letra de Pídeme
Pídeme si quieres que no me equivoque
Pídeme los días de cada semana
Pídeme el silencio que no me hace falta
Lo único que quiero es que nunca te vayas
Pídeme la luna para ir por ella
O tal vez prefieras la rosa mas bella
Pide lo que quieras pero no me pidas
Que yo me olvide de ti
Pídeme el regalo mas caro del mundo
Yo se que tal vez esto te suene absurdo
Pero no me pidas cosas imposibles como olvidarme de ti
Pídeme si quieres la noche perfecta
O escribir tu nombre en medio de la luna
Pero no me pidas nunca esa locura
Que yo me olvide de ti
Que yo me olvide de ti
INTRMEDIO PARA REPETIR LA CANCION:Em,C,D,G,G
Pídeme si quieres que no me equivoque
Pídeme los días de cada semana
Pídeme el silencio que no me hace falta
Lo único que quiero es que nunca te vayas
Pídeme la luna para ir por ella
O tal vez prefieras la rosa mas bella
Pide lo que quieras pero no me pidas
Que yo me olvide de ti
Pídeme el regalo mas caro del mundo
Yo se que tal vez esto te suene absurdo
Pero no me pidas cosas imposibles como olvidarme de ti
Pídeme si quieres la noche perfecta
O escribir tu nombre en medio de la luna
Pero no me pidas nunca esa locura
Que yo me olvide de ti
Que yo me olvide de ti




[Pídeme acordes][Pídeme chords]
© LaCuerda.net · notícia legal · privacidade · es · en · pt · contato
DINAMICO