Cifras para Violão e Guitarra » G »la Gusana Ciega » Tornasol (Tab)

Tornasol
la Gusana Ciega

Letras, cifras e tablaturas para violão, guitarra, piano, ukulele e baixo

  • A-E-D-E-A x2
    
    A       E    D         E              A
    Estamos esperando, tu cambio de estación
    
           E       D         E           A
    Tu visión de lluvia, tu nueva confusión
    
             E        D               E        A
    Tal ves no, seré yo quien pueda descifrarte
    
    
    
            E       D         E        A
    Tu disfraz de niña, esconde tu visión
    
           E       D         E           A
    luego te descubres, tormenta de pasión
    
           E        D               E        A
    
  •    A         E         D         E
    e|-----------------------------------------|
    B|-2-2-2-2-0-0-0-2-0-0-3-3-3-3-3-0-0-2-0-0-|
    G|-2-2-2-2-2-1-1-1-1-1-2-2-2-2-2-1-1-1-1-1-|
    D|-2-2-2-2-2-2-2-2-2-2-0-0-0-0-0-2-2-2-2-2-| x2
    A|-0-0-0-0-0-2-2-2-2-2-0-0-0-0-0-2-2-2-2-0-|
    E|-0-0-0-0-0-0-0-0-0-0-0-0-0-0-0-0-0-0-0-0-|
    
      A            E          D           E
    e|------------------------------------------------------|
    B|-------2-3-5-------2-3-5-------2-3-5------2-3-5-2-3-5-|
    G|-2-2-4-------1-2-4------2-2-4-------1-2-4-------------|
    D|------------------------------------------------------|  x2
    A|------------------------------------------------------|
    E|------------------------------------------------------|
    
    A       E     D   E
    Estamos esperando tu cambio de estación
    A       E      D       E
    tu visión de lluvia, tu nueva confusión
    
  •       A      E        D        E 
    E|------0-0-0---0-0-0-0---2-2-0---0-0-0-0--|00-00|--------------|
    B|------2-2-0---0-0-2-0---3-3-3---0-0-2-0--|00-00|--------------|
    G|------2-2-2---1-1-1-1---2-2-2---1-1-1-1--|11-11|--------------|
    D|------2-2-2---2-2-2-2---0-0-0---2-2-2-2--|22-22|--------------|
    A|------0-0-0---2-2-2-2-----------2-2-2-2--|22-22|--------------|
    E|------0-0-0---0-0-0-0-----------0-0-0-0--|00-00|--------------|
    
    Riff 1 
    E|------------------------------------------------------------------------|
    B|------------------------------------------------------------------------|
    G|-------(0)-6-7-9-------(0)-6-7-9-----(0)-6-7-9--6-7-9---6-7-9-6-7-9-----|
    D|-7-7-9---------7-7-9----------7-7-9-------------------------------------|
    A|------------------------------------------------------------------------|
    E|------------------------------------------------------------------------|
    
    Verso:
    A       E    D       E              A
    Estamos esperando tu cambio de estacion
          E        D     E              A
    
  •     A           E           D         E            A 
    
      D D D  u  D u D u D u  D D D  u  D u D u D u  D D D  u  
                           
    e--0-0-0--0--0-0-0-0-0-0--2-2-2--0--0-0-0-0-0-0--0-0-0--0--------------
    B--3-3-3--0--0-0-2-0-0-0--3-3-3--0--0-0-2-0-0-0--3-3-3--0--------------
    G--3-3-3--0--1-1-1-1-1-1--2-2-2--0--1-1-1-1-1-1--3-3-3--0--------------
    D--3-3-3--0--2-2-2-2-2-2---------0--2-2-2-2-2-2--3-3-3--0--------------
    A--0-0-0--0--2-2-2-2-2-2---------0--2-2-2-2-2-2--0-0-0--0--------------
    E--0-0-0--0--0-0-0-0-0-0---------0--0-0-0-0-0-0--0-0-0--0--------------
    
            E          D        E     E     E
    
        D u D u D u  D D D  u  D u   D D   D D  
    
    ----0-0-0-0-0-0--2-2-2--0--0-0---0-0---0-0--------------------
    ----0-0-2-0-0-0--3-3-3--0--0-0---0-0---0-0--------------------
    ----1-1-1-1-1-1--2-2-2--0--1-1---1-1---1-1--------------------
    ----2-2-2-2-2-2---------0--2-2---2-2---2-2--------------------
    ----2-2-2-2-2-2---------0--2-2---2-2---2-2--------------------
    
  • Intro de guitarras
    
    intro con bajo y bateria
    G------------------------------------------------------
    D------------------------------------------------------
    A----------4h5po4------------5~-5~------7-7---5-7-5---
    E-5~---5~---------0~---0-5-7----------------7-------7-
    
    G-----------------------------------------
    D-----------------------------------------
    A----------4h5po4--------4h5po4--5~-5---7/-
    E---5~-5~----------0~-0-----------------------
    
    verso 1:
    
    Estamos esperando...
    G----------------------------------
    D---------------------------------
    A-------------5-5-5-7-7-7--------          X 4
    E-5-5-5-0-0-0--------------------
    
    Se repite el intro.
    
    verso 2:
    
    Tu disfras de niña...
    G----------------------------------
    D---------------------------------
    A-------------5-5-5-7-7-7--------          X 4
    E-5-5-5-0-0-0--------------------
    
    como por la tercera vez hace esto:
    G--7h9h7~-----9h11-9-------------------------
    D--------------------11-9-------66-99-6--------
    A-------------------------77-99---
  • Solamente falta un arreglo a medio verso que no saque,
    lo demás me parece está casi perfecto. Gracias por sus
    comentarios y sugerencias. El tiempo es fácil, solo
    escuchen la canción.
    
    
    Introducción (0:12):
    G|------------------------------------------------------------|
    D|------------------7-----------------------------------------|
    A|--------------7/9---9-7---7--7---5---5--5---7--7-7--7-5--5--|
    E|-5---5----5-------------------------------------------------|
    
    G|-------------------------------------------------------------|
    D|-------------7--------------9---------------7/9--9-11--11-11-|
    A|--------7/9---9-7---7--9/11---11-5--5--5---------------------|
    E|-5---5-------------------------------------------------------|
    
    
    Verso:
    G|----------------------------------------------------|
    D|----------------------------------------------------| (x2)
    A|-----------7--x-7-----5----x-5------7--7-7--7-5--5--| /
    E|-5---5----------------------------------------------|/
    
    G|----------------------------
  • Ok, aqui les va como se toca:
    
             C= Crash
             R= Ride
             s= Splash
             H= Hihat x=closed X=open
             S= Snare 
             F= Floor tom
             B= Bass drum
    
    
    Opening
    
    S |----------oo-oo-|
    F |----------oo-oo-|
    B |------------o---|
      |1 + 2 + 3 + 4 + )
    
    Intro
    
    C |x------x-------x|----------------|x------x-------x|----------------|
    H |--X-X-X---X-X-X-|--X-X-X-X-X-X-X-|--X-X-X---X-X-X-|--X-X-X---------|
    S |----o-------o---|----o-------o---|----o-------o---|----o-----oo-oo-|
    F |----------------|----------------|----------------|----------oo-oo-|
    B |o-o---oo--o---oo|--o----o-oo----o|o-o---oo--o---oo|--o---oo----o---|
      (1 + 2 + 3 + 4 + |1 + 2 + 3 + 4 + |1 + 2 + 3 + 4 + |1 + 2 + 3 + 4 + )
    
    Verse 1                               _________________________________
                                         |                X2               |
     C |x---------------|----------------|----------------|----------------|
     H |--x-x-x-x-x-x-x-|x-x-x-x-x-x-x
  • h=hithat
    b=bombo
    r=ride20
    T=tarola
    T9=tom grande
    
    emieza asi:
    r-------X-X--X-X----X-------X-----X----X------X----|
    h-xx-xx-xxxxxxxxxxxxxxxxxxxxxxxxxxxxxxxxxxxxxxxxxxx|
    T-oo-oo-----o------o-----o------o-----o------o-----|
    b-------o-o--o-o-o--o-o-o---o-oo--o-o--o-o-o--o-o-o|
    
    continua
    |---------X|primer ritmo
    |xxxxxxxxxx|
    |-o-oo-oo--|
    |---oo-oo--|
    
    h|xxxxxxxxxxxxxxxxxxxxxxxxxxxxxxxxx|segundo ritmo
    T|-----o------o------o------o------|este es el ritmo
    b|-o-o--o-o-o--o-o-o--o-o-o--o-o-o-|
    
    x10
    r|-x-------X-------X-------X-------X-|                 
    T|-o-o-o-o-o-o-o-o-o-o-o-o-o-o-o-o-o-|
    b|-o-o-o-o-o-o-o-o-o-o-o-o-o-o-o-o-o-|
    luego
    r|XX-XX-XX-|y se vuelve al primer ritmo
    h|---------|
    T|oo-oo-oo-|
    b|oo-oo-oo-|
    
    
    para pasar del segundo ritmo al tersero es asi
    r|-XX-|
    h|-xx-|
    T|----|
    b|-oo-|
    
    r|---------------------------------|cuarto ritmo
    h|xxxxxxxxxxxxxxxxxxxxxxxxxxxxxxxx-|
    T|---o---o---o---o---o---o---o---o-|
    b|-oo-ooo-ooo-ooo-ooo-ooo-ooo-ooo--|
    pa
  • +
    ¡Colabora con nosotros!
    Envíanos tu versión de esta canción
  • Tutorial
    HD
    Como tocar TORNASOL en guitarra - La Gusana Ciega [Tutorial Somos Posers]
    7:23

Letra de Tornasol
Estamos esperando, tu cambio de estación
Tu visión de lluvia, tu nueva confusión
Tal ves no, seré yo quien pueda descifrarte
Tu disfraz de niña, esconde tu visión
luego te descubres, tormenta de pasión
tal ves hoy seré yo quien pueda descifrarte
Vuelves a ser, mis sueños mi dulce sirena
vuelves a ser, el sol que quema las estrellas
los girasoles pasan horas sin poder besarte
vuelves a ser el universo de repente
Cada ves que cambian tus sueños de color
luces tan distinta, tu piel es de tornasol
tu razón, es una fusión interminable
Vuelves a ser, mis sueños mi dulce sirena
vuelves a ser, el sol que quema las estrellas
los girasoles pasan horas sin poder besarte
vuelves a ser el universo de repente
no creo que puedas saber,
lo que se siente caer del parasol,
al sueño intermitente
nena luz, a fondo de tu esfera
donde todo gira y luego lentamente
Vuelves a ser, mis sueños mi dulce sirena
vuelves a ser, el sol que quema las estrellas
los girasoles pasan horas sin poder besarte
vuelves a ser el universo de repente




[Tornasol acordes][Tornasol chords]
© LaCuerda.net · notícia legal · privacidade · es · en · pt · contato
DINAMICO