Cifras para Violão e Guitarra » G »Gustavo Cerati » Av. Alcorta (Tab)

Av. Alcorta
Gustavo Cerati

Letras, cifras e tablaturas para violão, guitarra, piano, ukulele e baixo

  • INTRO [Am] x 4                              Csus2 -> X35533
          [Am F D F  Am D G F] x 2
    Am  F      D     F     Am  D  G  F
    Avenida Alcorta cicatriz
    Am     F      D    F     Am     D G F
    hoy volvi cansado de hablar de mi
    Am    F       D     F    Am D G F
    providencial puede ser azar
    Am       F     D        F  Am        D  G  F
    donde estemos juntos sera nuestro hogar
    D    F        G       D
    No se, no se donde estas
          F         G   Am F D F  Am D G F
    y me vuelvo extrano
       
    Am        F       D    F    Am D G F
    Esta cancion es droga para mi
    Am   F         D   F    Am      D G F
    un iman que atrae toda la ansiedad
    D    F         G          D
    
  • --------
    Em      022000
    C/G     332010
    A       002220
    D7sus2  x54550
    C7sus2  x32330
    Em7     x-7-9-x-8-10
    A7      xx7989
    D7      xx7778
    C7      xx5556
    Asus2   x02200
    CM7     x12000
    Em9/D   x54000
    Bb6     x1xx33
    Cadd9   x32033
    
    intro:
    ------
    
    E |--0-----0------0--0--0-----0-----0--0----|
    
  • e|-15-14-13-11/-|                e|-14-13-11/-|
    B|-13-12-11-10/-|                B|-12-11-10/-|
    G|-12-11-10-9/--|                G|-11-10-9/--|
    D|-14-13-12-11/-|  Riff-1        D|-13-12-11/-|  Riff-2
    A|-12-11-10-9/--|                A|-11-10-9/--|
    E|-12-11-10-9/--|                E|-11-10-9/--|
    
       Am F             F Am D G F                C D# F
    e|-5--1-5-----------1--5-5-3-1-|           e|-3-6--8--|
    B|-5--1-5-----------1--5-7-3-1-|           B|-5-8--10-|
    G|-5--2-5-7-5-7b-7b-2--5-7-4-2-| Riff-3    G|-5-8--10-| Riff-4
    D|-7--3-5-----------3--7-7-5-3-|           D|-5-8--10-|
    A|-7--3-------------3--7-5-5-3-|           A|-3-6--8--|
    E|-5--1-------------1--5-5-3-1-|           E|-3-6--8--|
    
    
    
    INTRO
    
    e|--5---------------------|
    
  • La canción no está 100% correcta, por lo tanto, agradezco
    cualquier corrección que se le haga. Gracias.
    
    
    G---------------------------|
    D------3--0--3-----0--5--3--|
    A---0-----------0-----------| (X6)
    E---------------------------|
    
    No sé... no sé donde estás...
    G---------------------------|
    D---0--3--5---0--3--5-------|
    A---------------------------|
    E---------------------------|
    
    G---------------------------|
    D------3--0--3-----0--5--3--|
    A---0-----------0-----------| (X3)
    E---------------------------|
    
    Ya sé... ya llegué hasta aquí..
    G---------------------------|
    D---0--3--5---0--3--5-------|
    A---------------------------|
    E---------------------------|
    
    G---------------------------|
    D------1--3--1313-----1--3--|
    A---3--------------3--------|
    E---------------------------|
    
    Avenida Alcorta...
    G---------------------------|
    D------3--0--3-----0--5--3--|
    A---0-----------0-----------| (X2)
    E---------------------------|
    
    No sé... no sé donde estás...
    G---------------------------|
    
  • +
    ¡Colabora con nosotros!
    Envíanos tu versión de esta canción
  • Tutorial
    Av. Alcorta (acordes)
    - Gustavo Cerati.
    4:47

Letra de Av. Alcorta
Avenida Alcorta cicatriz
hoy volvi cansado de hablar de mi
providencial puede ser azar
donde estemos juntos sera nuestro hogar
No se, no se donde estas
y me vuelvo extrano

Esta cancion es droga para mi
un iman que atrae toda la ansiedad
Ya se, ya llegue hasta aqui
no quiero pasarme
Avenida Alcorta cicatriz
hoy volvi cansado de hablar de mi
No se, no se donde estas
ya se, ya llegue hasta aqui
y te extrano tanto

He encerrado el cielo para ti
no tengo tierra para mi
He encerrado el cielo para ti
no tengo tierra para mi

He encerrado el cielo para ti
no tengo tierra para mi




[Av. Alcorta acordes][Av. Alcorta chords]
© LaCuerda.net · notícia legal · privacidade · es · en · pt · contato
DINAMICO