Cifras para Violão e Guitarra » G »Gustavo Cerati » Crimen (Tab)

Crimen
Gustavo Cerati

Letras, cifras e tablaturas para violão, guitarra, piano, ukulele e baixo

  • Intro: E
    
         C/A         D
    La espera me agotó
       G#m7        A
    no sé nada de vos
      F#m7           B  E
    dejaste tanto en mi
    
       C/A            D
    En llamas me acosté
          G#m7        A
    en un lento degradé
      F#m7          B B
    supe que te perdí
    
             F#m7          B
    Que otra cosa puedo hacer
         C#m   Am   G#m7
    sin olvido moriré
    
  • E
       C             D
    La espera me agotó
       G#m           A
    no sé nada de vos
       F#m           B
    dejaste tanto en mi
    
    E
       C             D
    En llamas me acosté
          G#m         A
    en un lento degradé
      F#m           B
    supe que te perdí
    
             F#m          B
    Que otra cosa puedo hacer
         C#m   C6     B6
    sin olvido moriré
    
  • E
       C/G             D
    La espera me agoto
       G#m           A
    no se nada de vos
       F#m7          B
    dejaste tanto en mi
    E
       C/G             D
    En llamas me acoste
       G#m           A
    en un lento degrade
       F#m7          B
    supe que te perdi
    
       F#m           B
    Que otra cosa puedo hacer
       C#m     Am     G#m
    sin olvido morire
       F#m                G#m
    
  •             E
    e|--------------------------|
    B|--0-----0-----0-----0-----|
    G|--1-----1-----1-----1-----|
    D|-----2-----2-----2-----2--|
    A|--------------------------|
    E|--0-----------------------|
    
                C                           D
    e|--------------------------|--2-----2-----2-----2-----|
    B|--1-----1-----1-----1-----|--3-----3-----3-----3-----|
    G|--0-----0-----0-----0-----|-----2-----2-----2-----2--|
    D|-----2-----2-----2-----2--|--0-----------------------|
    A|--3-----------------------|--------------------------|
    E|--------------------------|--------------------------|
        La    espera    me    agoto
    
               G#m                          A
    e|--------------------------|--------------------------|
    B|--4-----4-----4-----4-----|--2-----2-----2-----2-----|
    
  • Verso 1 Piano solo
    
    Verso 2
    G|-----------------|-----------------|
    D|-----------------|-----------------|
    A|-7-------3-------|-5---------------|
    E|-----------------|---------4-------|
    
    G|-----------------|-----------------|
    D|-----------------|-----------------|
    A|-----------------|-2-------2222222-|
    E|-5-------2-------|-----------------|
    
    Coro
    G|------------------|------------------|
    D|------------------|------------------|
    A|---------22222222-|-44443333-2222222-|
    E|-22222222---------|------------------|
    
    G|-------------------|------------------|
    D|-------------------|------------------|
    A|-------------------|---------77777777-|
    E|-22222222-44444444-|-22222222---------|
    
    Verso 3
    G|-------------------|------------------|
    D|-------------------|------------------|
    A|-77777777-33333333-|-55555555---------|
    E|-------------------|---------44444444-|
    
    G|-------------------|-------------------|
    D|-------------------|-------------------|
    A|-------------------|-22222222-77777777-|
    E|-5555-5-4-2
  • +
    ¡Colabora con nosotros!
    Envíanos tu versión de esta canción
  • Tutorial
    HD
    Como tocar Crimen GUSTAVO CERATI en Guitarra Acustica (HD)
    Tutorial Acordes
    6:16
  • Tutorial
    Como tocar CRIMEN de Gustavo Cerati
    8:11
  • Tutorial
    HD
    Como Tocar Crimen en Guitarra - Gustavo Cerati - Leccion de Guitarra Acustica
    17:56
  • Tutorial
    HD
    Explicado - Como tocar "Crimen" de Gustavo Cerati en el bajo tutorial#64
    8:46

Letra de Crimen
La espera me agoto
no se nada de vos
dejaste tanto en mi
En llamas me acoste
en un lento degrade
supe que te perdi
Que otra cosa puedo hacer
sin olvido morire
y otro crimen quedara
otro crimen quedara
sin resolver
Una rapida traicion
salimos del amor
tal vez me lo busque
Mi ego va a estallar
ahi donde no estas
los celos otra vez
Que otra cosa puedo hacer
sin olvido morire
y otro crimen quedara
otro crimen quedara
sin resolver
No lo se
cuanto falta
no lo se
si es muy tarde
no lo se
sin olvido
morire
que otra cosa puedo hacer
que otra cosa puedo hacer
ahora se lo que es
perder
y otro crimen quedara
otro crimen quedara
sin resolver




[Crimen acordes][Crimen chords]
© LaCuerda.net · notícia legal · privacidade · es · en · pt · contato
DINAMICO