Cifras para Violão e Guitarra » G »Gustavo Cerati » Paseo Inmoral (Tab)

Paseo Inmoral
Gustavo Cerati

Letras, cifras e tablaturas para violão, guitarra, piano, ukulele e baixo

  • E
    Comencé....
    F#7
    a girar como un reloj
    D
    hoy el oro esta en mi piel
    
    Desperté...
    las  ideas fueron mas
    puedo obviarlas y esperar.
    
    G#m     F#m G#m F#m
    Estoy detrás del corazón
    G#m        F#m           E
    moviéndolo lentamente.
    
    Sigo detrás del corazón
    Moviéndolo.... lentamente.
    
    Háblame...
    
  • E-----------------
    B-----------------
    G-----------bu7---
    D-----6-6-7-----6-
    A-----------------
    E-----------------
    
    bu es bend up o estirar
    
    E 
    Comence....
    F#7               A
    a girar como un reloj
                              E
    hoy el oro esta en mi piel
    
    Desperte...
     F#7               A 
    las  ideas fueron mas
                             E
    
  • E
    Comencé....
    F#7
    a girar como un reloj
    D9                      E
    hoy el oro esta en mi piel
    
    Desperté...
    F#7
    las  ideas fueron mas
    D9                     E
    puedo obviarlas y esperar.
    
    G#m     F#m7 G#m     F#m7
    Estoy detrás del corazón
    G#m       F#m     E
    moviéndolo lentamente.
    G#m     F#m7 G#m     F#m7
    Sigo detrás del corazón
    G#m       F#m     E
    
  • paseo inmoral-gustavo cerati
    
    INTRO:
    
    e/-------------------------------------------
    b/-------------------------------------------
    g/---------------7------------------7---------
    d/------6-----7------7----6----7-------------
    a/----7----7------------7---7----------------
    E/-------------------------------------------
    
    ........comenze_____.......................
    e/-------------------------------------------
    b/-------------------------------------------
    g/-------------------------------------------
    d/--------6-----6-----6-------------------------
    a/-----7-----7-----7-----7-----------------------
    E/-------------------------------------------
    
    .......a girar como un reloj........
    e/----2---------------------------------------
    b/----2---------------------------------------
    g/----2---------------------------------------
    d/----4---------------------------------------
    a/----4---------------------------------------
    E/----2---------------------------------------
    
    ...........hoy el oro esta en mi pie
  • +
    ¡Colabora con nosotros!
    Envíanos tu versión de esta canción

Letra de Paseo Inmoral
bu es bend up o estirar
Comence....
a girar como un reloj
hoy el oro esta en mi piel
Desperte...
las ideas fueron mas
puedo obviarlas y esperar
Est
Estoy detras del corazon
moviendolo lentamente
Sigo detras del corazon
moviendolo lentamente
Hablame...
Y despues...
Est.




[Paseo Inmoral acordes][Paseo Inmoral chords]
© LaCuerda.net · notícia legal · privacidade · es · en · pt · contato
DINAMICO