Cifras para Violão e Guitarra » G »Gustavo Cerati » Sudestada (Tab)

Sudestada
Gustavo Cerati

Letras, cifras e tablaturas para violão, guitarra, piano, ukulele e baixo

  • ------------------
    Rasgueo: vv^^vv^v^
    ------------------
      Am7    C/G
    A ver, A ver,
        G
    Si aclara
       Am7    C/G
    Hable de vos,
            G      Am7
    De mis ansias
                     C/G
    Del día que nació,
      G         Am7
    en tu boca
                    C/G
    Del nuevo temporal,
          G
    que estalla
    
    
  • -----------------------------------------------------------------
    Separé la canción en dos versos, un coro, una parte instrumental,
    la intro y el final.
    -----------------------------------------------------------------
    INTRO: G (toda la intro)
    
    VERSO 1:
      Am7    C7
    A ver, A ver
          G
    Si aclara
      Am7     C7
    Hable de vos
            G
    De mis ansias
    Am7               C7         G
       Del día que nació, en tu boca
    Am7               C7          G
       Del nuevo temporal, que estalla
    
    
  • INTRO:                     Am7     C6
    E---------------------    E--x    E--x
    A---------------------    A--0    A--3
    D---------------------    D--2    D--2
    G---------------------    G--0    G--2
    B-3-------------------    B--1    B--1
    e-------0---3---5-----    e--0    e--0
    
     G (toda la intro)
    
    
    VERSO 1:
      Am7    C6
    A ver, A ver
          G
    Si aclara
      Am7     C6
    Hable de vos
            G
    De mis ansias
    
  • E---------------------------------------------
    A---------------------------------------------
    D---------------------------------------------
    G---------------------------------------------
    B-3----3--5----------3--5-------3----3--5-----
    e---5-------1-----5--------1------5--------1--
    
    
    Riff 1 (0:20)
    
    E-------------------
    A-------------------
    D-------------------
    G-------------------
    B---0h-1-p0---------
    e-------------------
    
    Riff 2  (3:17)
    
    E--------------------------------------------------------------------------
    
  • +
    ¡Colabora con nosotros!
    Envíanos tu versión de esta canción

Letra de Sudestada
Separé la canción en dos versos, un coro, una parte instrumental,
la intro y el final.
VERSO 1:
A ver, A ver
Si aclara
Hable de vos
De mis ansias
Del día que nació, en tu boca
Del nuevo temporal, que estalla
F - Am (F es el primer acorde que suena, se pasa rapidamente al otro)
VERSO 2:
Afuera mis
Entrañas
Adentro sigue
En calma
Trataba de explicar,
Que ya no hay vuelta atrás
Hablé, hablé, de todo
INSTRUMENTAL:
FINAL: G (hasta que termina)
Un gracias enorme a Cerati por sacar un nuevo disco, que si bien
para mi no está a la altura de Bocanada, me puede porque lleva su
firma en el estilo de las melodías, la eficaz simpleza y las
letras (a pesar de que éstas son el aspecto más flaco del disco,
si se las compara con las de Bocanada...)




[Sudestada acordes][Sudestada chords]
© LaCuerda.net · notícia legal · privacidade · es · en · pt · contato
DINAMICO