Cifras para Violão e Guitarra » H »Hector Ochoa » El Camino De La Vida (Tab)

El Camino De La Vida
Hector Ochoa

Letras, cifras e tablaturas para violão, guitarra, piano, ukulele e baixo

  •                  Am     A7  Dm
    De prisa como el viento van pasando
                   G7            C
    Los días y las noches de la infancia,
                    A7         Dm
    Un ángel nos depara sus cuidados
                        F     B7     E
    Mientras sus manos tejen las distancias.
    
                       Am  A7   Dm
    Después llegan los años juveniles,
                      G7           C
    Los juegos, los amigos, el colegio
                  A7        Dm
    El alma ya define sus perfiles
                    Am                  E         Am
    Y empieza el corazón de pronto a cultivar un sueño.
    
        E                         Am
    Y brotan como manantial las mieles del primer amor,
    
  •                    Am         Dm
    De prisa como el viento van pasando
                   G7               C
    Los días y las noches de la infancia,
                   A7          Dm
    Un ángel nos depara sus cuidados
                          B7           E7
    Mientras sus manos tejen las distancias.
    
                       Am         Dm
    Después llegan los años juveniles,
                    G7           C
    Los juegos, los amigos, el colegio
                  A7         Dm
    El alma ya define sus perfiles
                   Am                     E7      Am
    Y empieza el corazón de pronto a cultivar un sueño.
    
    E7                           Am
    Y brotan como manantial las mieles del primer amor,
    
  • Esta cancion es para Manuela, que la extraño como nunca,
    que me duele no haber hablado con ella,que sigamos siendo amigos,
    y que ojala ahorita todo este bien.
    
    
    INTRO
    
    e|-7--------------|-7-------------|-7---------------7vv-|
    B|----9----9---9--|---9---9-----9-|---9----9-----9------|
    G|-------9---9----|-----9----9----|------9-----9--------|
    D|----------------|---------------|---------------------|
    A|----------------|---------------|---------------------|
    E|----------------|---------------|---------------------|
    
    e|-8-----------------|-8--------------|-8----------------8vv-|
    B|----10----10---10--|---10--10----10-|---10----10---10------|
    G|-------9-----9-----|------9----9----|------9-----9---------|
    D|-------------------|----------------|----------------------|
    A|-------------------|----------------|----------------------|
    E|-------------------|----------------|----------------------|
    
    e|-10----------------|-10---------------|-10---------------10vv-|
    B|----12----12---12--|---12---12-----
  •     e..........022000        E7.........022130
        a..........002210        D7.........000212
        G..........320003        F#7........242352 "con sejilla"
        B7.........021202        E..........022100
        B..........224443 "con sejilla"
    
    Simbología:
                   -Alteración-         -Ritmo-
            PM: Palm Mute         A: ritmo arriba
            v: vibrar             a: ritmo abajo
            s: Slide [resbalo]    ä: rasgueo abajo acentuado
    ____________________________________________________________________________
    
    INTRODUCCIÓN:
    
    e:-------------------------|--7--------7--------7--|
    B:-10--7-----10--7-----10--|-----8--------8--------|
    G:--------8---------8------|--------9--------9-----|
    D:-------------------------|-----------------------|
    A:-------------------------|-----------------------|
    
  • +
    ¡Colabora con nosotros!
    Envíanos tu versión de esta canción

Letra de El Camino De La Vida
De prisa como el viento van pasando
Los días y las noches de la infancia,
Un ángel nos depara sus cuidados
Mientras sus manos tejen las distancias.
Después llegan los años juveniles,
Los juegos, los amigos, el colegio
El alma ya define sus perfiles
Y empieza el corazón de pronto a cultivar un sueño.
Y brotan como manantial las mieles del primer amor,
El alma ya quiere volver y vuela tras una ilusión,
Y aprendemos que el dolor y la alegría
Son la esencia permanente de la vida.
Y luego cuando somos dos en busca del mismo ideal,
Formamos un nido de amor, refugio que se llama hogar,
Y empezamos otra etapa del camino,
Un hombre, una mujer, unidos por la fe y la esperanza.
Los frutos de la unión que Dios bendijo
Alegran el hogar con su presencia,
A quien se quiere mas si no a los hijos,
Son la prolongación de la existencia.
Después cuantos esfuerzos y desvelos
Para que no les falta nunca nada
Para que cuando crezcan lleguen lejos
Y pueden alcanzar esa felicidad tan anhelada.
Y luego cuando ellos se van, algunos sin decir adiós
El frió de la soledad golpea nuestro corazón,
Es por eso Amor Mío que te pido
Por una y otra vez, si llego a la vejez,
Que estés conmigo...

Vídeo de El Camino De La Vida
[ver mais vídeos]




[El Camino De La Vida acordes][El Camino De La Vida chords]
© LaCuerda.net · notícia legal · privacidade · es · en · pt · contato
DINAMICO