Cifras para Violão e Guitarra » H »Hillsong United » Hosanna (Tab)

Hosanna
Hillsong United

Letras, cifras e tablaturas para violão, guitarra, piano, ukulele e baixo

  • Em G5 Am Bm x2
    
    G5
    Veo al rey de Gloria
    Em
    Viene con fuego y poder
            Am
    Todos verán
             D      Em
    Todos verán yehehe
    
    G5
    Veo su amor y gracia
    Em
    Mi pecado perdonó
            Am
    Le alabaré
             D
    Le alabaré
    
    
  • intro: C#m Emaj7 F#m G#m//
    
    Eadd2                C#m
    veo a rey de gloria viene con fuego y poder
             F#m7         G#m7     C#m
    todos veran  todos veran
    
    Eadd2                C#m
    veo su amor y gracia mi pecado perdono
            F#m7         G#m7
    le alabare   le alabare
    
    coro:
      E/G#  A B    C#m A                 C#m  B  ( 2da vez se toca A B C#m)
    //hosanna hosanna  hosanna en las alturas//
    
    veo como se levanta una gran generacion (MISMA SECUENCIA DE ARRIBA)
    //con compasion//
    
    veo avivamiento al buscarte y al orar
    
  • Intro: C#m E F#m G#m //
    E
    VEO AL REY DE GLORIA
    C#m
    DE LOS CIELOS DESCENDER
    F#m
    LA CREACION
    B      C#m
    ESTREMECER
    Arreglo: C#m E F#m G#m
    E
    VEO SUA MOR Y GRACIA
    C#m
    EN CADA PERSONA OBRAR
    F#m      B
    Y CANTAR Y CANTAR
    E/G# A  B   C#m
    HOSANNA HOSANNA
    A       C#m         B
    HOSANNA EN LAS ALTURAS
    
  • -----4-------4------------------
    ---5-----5h7---------4-------4--
    -6-----6-----------4-----4h6----
    -----------------6-----6--------
    --------------------------------
    --------------------------------
    
    --------------------------------
    -------5---5--------4--------4--
    -----6-------6----4------4h6----
    -6s7-----7------6------6--------
    --------------------------------
    --------------------------------
    
    -----4-------4------------------
    ---5-----5h7---------4-------4--
    -6-----6-----------4-----4h6----
    -----------------6-----6--------
    --------------------------------
    --------------------------------
    
  • Intro: C#m  E  F#m G#m   x2
    
    
    e-----4-------4------------------
    b---5-----5h7---------4-------4--
    g-6-----6-----------4-----4h6----
    D-----------------6-----6--------
    A--------------------------------
    E--------------------------------
    
    e--------------------------------
    b-------5---5--------4--------4--
    g-----6-------6----4------4h6----
    D-6s7-----7------6------6--------
    A--------------------------------
    E--------------------------------
    
    
    
    e-----4-------4------------------
    
  • Bendiciones, yo y un amigo sacamos la stabs
    nos costo trabajo ya que pues no teniamos buen sistema de sonido
    pero al fin la sacamos y se oye bien! n_n
    
    califiquenme ustedes es mi primera colaboracion
    
    tube que recortar las tabs para que en la impresion no saliera tan larga
    pero si quieren las tabs como estan pidanlas a cualkiera de mis correos
    
    Bajo Estandar: E,A,D,G.
    
    Intro:
    G|-----------------------------------------------------------------------|
    D|-----------------------------------------------------------------------|
    A|4-4-4-4-4-4-4-4-7-7-7-7-7-7-7-7-9-9-9-9-9-9-9-9-11-11-11-11-11-11-11-11|
    E|-----------------------------------------------------------------------|
    
    Verso I:
    G|------------------------|
    D|------------------------|
    A|7(8)-4(8)------2(8)-4(6)|
    E|----------2(8)----------|
    
    G|---------------------------------------------------------------|
    D|---------------------------------------------------------------|
    A|7-7-7-7-7-7-7-7-4-4-4-4-4-4-4-4-----------------2-2-2-2-2-2-2-
  • +
    ¡Colabora con nosotros!
    Envíanos tu versión de esta canción
  • Tutorial
    HD
    Hosanna Tutorial con guitarra acústica
    Hillsong en español
    5:24

Letra de Hosanna
VEO AL REY DE GLORIA
DE LOS CIELOS DESCENDER
LA CREACION
ESTREMECER
Arreglo: C#m E F#m G#m
VEO SUA MOR Y GRACIA
EN CADA PERSONA OBRAR
Y CANTAR Y CANTAR
HOSANNA HOSANNA
HOSANNA EN LAS ALTURAS
HOSANNA HOSANNA
HOSANNA EN LAS ALTURAS
Arreglo: C#m E F#m G#m
VEO UNA GENERACION
LISTA PARA CONQUISTAR
UN SOLO DIOS UNA VERDAD
VEO EL AVIVAMIENTO
COMENZANDO AL ORAR
Y ADORAR Y ADORAR
HOSANNA HOSANNA
HOSANNA EN LAS ALTURAS
HOSANNA HOSANNA
HOSANNA EN LAS ALTURAS
Arreglo: C#m E F#m G#m //
MI CORAZON LO ENTREGO A TI
PARA VER LAS COSAS QUE NUNCA VI
QUIERO AMAR TAL COMO TU
ME AMASTE
QUIEBRA HOY MI CORAZON
TODO LO QUE SOY POR TU REINO DOY
MUESTRAME LA SENDA DE
LO ETERNO
Arreglo: C#m E F#m G#m
// HOSANNA HOSANNA
HOSANNA EN LAS ALTURAS
HOSANNA HOSANNA
HOSANNA EN LAS ALTURAS //




[Hosanna acordes][Hosanna chords]
© LaCuerda.net · notícia legal · privacidade · es · en · pt · contato
DINAMICO