Cifras para Violão e Guitarra » H »Hillsong United » Yo También (Tab)

Yo También
Hillsong United

Letras, cifras e tablaturas para violão, guitarra, piano, ukulele e baixo

  • Intro: D FAm E
    
    1 Estrofa
    D
    En el principio
    FAm
    Dios creador
    E                       D FAm E
    Antes del tiempo eras tú
    E
    En las tinieblas
    FAm
    Tu voz se escuchó
    E                     D FAm E
    Con ella creaste la luz
    
    1 Coro
    A
    Con solo hablar
                   FAm          E
    
  •    C                               Em              D
    E|-----------------|-----------------|-----------------|-----------------||
    B|---5---5---5---5-|---5---5---5---5-|---8---8---8---8-|---7---7---7---7-||
    G|-----------------|-----------------|-----------------|-----------------|| x2
    D|-----------------|-----------------|-----------------|-----------------||
    A|-3---3---3---3---|-3---3---3---3---|-7---7---7---7---|-5---5---5---5---||
    E|-----------------|-----------------|-----------------|-----------------||
    
    
    1° Estrofa
    
       En el principio                 Dios creador    Antes del tiempo eras--
       C                               Em              D
    E|-----------------|-----------------|-----------------|-----------------|
    B|---5---5---5---5-|---5---5---5---5-|---8---8---8---8-|---7---7---7---7-|
    G|-----------------|-----------------|-----------------|-----------------|
    D|-----------------|-----------------|-----------------|-----------------|
    A|-3---3---3---3---|-3---3---3---3---|-7---7---7---7---|-5---5---5---5---|
    E|-----------------|-----------------|-----------------|-----------------|
    
    
  • D /// | F#m / | E /
    
                      D
    VERSO 1: En el principio
    F#                 E                 D   F#   E
    Dios creador Antes del tiempo eras tú
       D
    En las tinieblas
    F#                 E                     D   F#   E
    Tu voz se escuchó Con ella creaste la luz
                                     A
     CORO 1: Con solo hablar
                         F#         E
     Creaste las galaxias con tu voz
                                A/C#     D
    Y tu aliento a los planetas forma dio
               F#          D      A
    Si los cielos te adoran yo también
                            F#        E
    Puedo ver tu corazón en la creación
    
  • D  | F#m   E
    D  | F#m   E
    VERSO 1:
    D
    En el principio
    F#m
    Dios creador
    E                      D  F#m E
    Antes del tiempo eras tú
    D
    En las tinieblas
    F#m
    Tu voz se escuchó
    E                    D  A/C#  E
    Con ella creaste la luz
    
    CORO 1:
                A
    Con solo hablar
                  F#m            E
    
  • +
    ¡Colabora con nosotros!
    Envíanos tu versión de esta canción

Letra de Yo También
1 Estrofa
En el principio
Dios creador
Antes del tiempo eras tú
En las tinieblas
Tu voz se escuchó
Con ella creaste la luz
1 Coro
Con solo hablar
Creaste las galaxias con tu voz
Y tú aliento a los planetas forma dió
Si los cielos te adoran yo también
Puedo ver tu corazón en la creación
Las estrellas son señales de tu amor
Si la tierra te alaba yo también
2 Estrofa
Dios de promesas
Tu palabra es fiel
Tus dichos permanecerán
Cuando abres tu boca
La vida y la ciencia
siempre tu voz seguirán
2 Coro
Con solo hablar
Le diste vida a todo alrededor
Creaste cada especie en su esplendor
Si ellos muestran quien tú eres yo también
Puedo ver tu corazón en la creación
Cada amanecer un lienzo de tu amor
Si los cielos te obedecen yo también
Si los cielos te alaban yo también
Si los montes se arrodillan yo también
Si los mares se someten yo también
Y si todo fue creado para ti yo también
Si los viento te obedecen yo también
Si las rocas te adoran yo también
Y si aún me queda mucho que expresar
Un billón de veces volveré a cantar
3 Estrofa
Eres quien salva
Viniste por mi
Peleaste por mi corazón
Allí en el calvario
En la oscuridad
La luz de este mundo murió
3 Coro
Con solo hablar
Disipas mis fracasos y temor
Tu viniste para darme salvación
Si la muerte derrotaste yo también
Tu misericordia veo en la creación
Cada escena pinta un cuadro de tu amor
Si elegiste ser un siervo yo también
Puedo ver tu amor por la humanidad
Cada hijo que viniste a rescatar
Si viviste para amarlos yo también
Final
Como tú lo harías una y otra vez
Pues tu gracia no se puede comprender
Al que se perdió lo buscas otra vez




[Yo También acordes][Yo También chords]
© LaCuerda.net · notícia legal · privacidade · es · en · pt · contato
DINAMICO