Cifras para Violão e Guitarra » I »Inti Illimani » Medianoche (Tab)

Medianoche
Inti Illimani

Letras, cifras e tablaturas para violão, guitarra, piano, ukulele e baixo

  • Am* -003110-
    
     (I)
          Am
    Ven a beber
    Am/B       Am/C       D/F#
    conmigo en doce copas
            Gmaj
    doce campanas
               C9
    esta medianoche
           F#dim              B9
    escucharás al bronce congelado
      Em7           Em7/F#
    dañando nuestro adiós
             Em7    E7
    con doce voces.
    
     (I)
    Ven a beber
    
  • Intro:
    
    e--5--7-5--10--7---5h7p5-I--------------------0-------------3---2-0--5-4-----]
    B--5--5-5----------5-----I--8-7--5h7p5-------1--1------2--3-0---0-0--0-0-----]
    G--5--------7--7---------I--7----5-----7-6-------------0--2------------------]
    D------------------------I---------------------------------------------------]
    A------------------------I------------------1------1-2-----------------------]
    E------------------------I------------------------------------0--------------]
    
    
    e--5--7-5--10--7---5h7p5--I----------------------------0-----------3-----------]
    B--5--5-5--7---7---5------I--8-7--5h7p5---5-4-3-2-1--1---1----2--3-0--3--2-----]
    G--5--5-5--7---7---5------I--7----5-----7---------------------0--2----2--0-----]
    D-------------------------I----------------------------------------------------]
    A-------------------------I-----------------------1------1--2------------------]
    E-------------------------I----------------------------------------------------]
  • e |:-5--7--5--10--7-|---3-2-0h2p0----0-------|-----0---------3-|
    B |:-5--5--5--10--5-|---0-0-0-----3----3-2-1-|---1-1-----2-4-4-|
    G |:-5--------9---5-|-------------0----------|---0-------2-4---|
    D |:----------10----|------------------------|-----------------|
    A |:-0------------0-|------------------------|-1-----1-2-------|
    E |:----------------|-0----------------------|-----------------|
    
    
      |-------------¬|---- ------¬
      |1.            |2.
    e |--------5--4---:|-----------||
    B |---3-2--3--3---:|---3--2----||
    G |---0-0--5--4---:|---4--4----||
    D |-----------2---:|---5--2----||
    A |---------------:|-----------||
    E |-0------0------:|-0---------||
    
    
      ] ÉSTOS SÍMBOLOS (|: :|) INDICAN QUE LOS COMPASES
        QUE SE ENCUENTREN ENTRE ELLOS SE DEBEN REPETIR.
    
  • E||--5---7--5---|--10---7---5h7--|--5-------3--|--2--0----------|--------0------|-------0--3--|
    B||--5---5--5---|-------5----5---|--5-------3--|--------3--2----|-----2-----2---|----3--------|
    G||--5---5--5---|--9----5----5---|--5-------2--|----------------|-----0---------|----2--------|
    D||--7----------|--10------------|-------------|----------------|-----2---------|----3--------|
    A||--7----------|----------------|-------------|--------------0-|--1----------1-|--2----------|
    E||--5----------|----------------|-------0-----|----------------|---------------|-------------|
    
    ----2---1---|---5---4----|--5---7--5---|--10---7---5h7-|--5-------3--|--2--0------0-|---------|
    ----1---0---|---3---3----|--5---5--5---|-------5----5--|--5-------3--|--------3-----|--3-2-1--|
    ----2---1---|---5---4----|--5---5--5---|--9----5----5--|--5-------2--|--------------|---------|
    ------------|------------|--7----------|--10-----------|-------------|--------------|---------|
    ------------|------------|--7----------|---------------|-------------|--------------|---------|
    --0---------|------------|--5----------|---------------|-------0-----|--------------|---------|
    
    -------0------|--------0--3--|-----5---4-------||
    ----2-----2---|-----3--------|-----3---3-------||
    ----0---------|-----2--------|-----5---4-------||
    ----2---------|-----3--------|-----------------||
    --1---------1-|--2-----------|-----------------||
    --------------|--------------|--0--------------||
    
  • +
    ¡Colabora con nosotros!
    Envíanos tu versión de esta canción

Letra de Medianoche
(I)
Ven a beber
conmigo en doce copas
doce campanas
esta medianoche
escucharás al bronce congelado
dañando nuestro adiós
con doce voces.
(I)
Ven a beber
conmigo en doce copos
que fundió el invierno
sobre la altura de mis sienes
y este desamparado corazón
que tengo.
(II)
Ven a morder
conmigo en doce gritos
los labios de un dolor
ya redoblado
será la última boca
que tu beses
cuando vayas camino del ocaso.
(II)
No bien bebas
conmigo el sorbo amargo
en la voz gris
de los metales ciegos
vendrá esta medianoche repicando
la eternidad de nuestros
dos destierros.
(II)
Ven a morder...




[Medianoche acordes][Medianoche chords]
© LaCuerda.net · notícia legal · privacidade · es · en · pt · contato
DINAMICO