Cifras para Violão e Guitarra » I »Intoxicados » Se fue al cielo (Tab)

Se fue al cielo
Intoxicados

Letras, cifras e tablaturas para violão, guitarra, piano, ukulele e baixo

  •           G
    Cuando camino solo trato 
             C
    q nadie me distraiga
               G          
    seguramente estoy colgado
               G
    en esas cosas que
         C             G
    nadie me puede explicar
    
    
    Armando mi propia religión
    mi espiritu está tratando
    de encontrar alguna
    buena razon para justificar
    vivir en este lugar.
    
           D
    Pero ahora no quiero hacertte pensar
    
  •   1º SOLO
         
       1 ------------------------------------------------------------------------------------------
         ------------------------------------------------------------------------------------------
         --4--4-5-4-7-2--2-4-2-5------------4--4-4-2---4--4-5-4-7-2--2-4-2-5----------4------------
         ------------------------5--5-7-5-7----------------------------------5--5-7-5---4--4h5-4-2-
         ------------------------------------------------------------------------------------------
       6 ------------------------------------------------------------------------------------------
    
         2º SOLO
         
       1 ------------------------------------------------------------------------------------------
         --10-8------------10--12---10-8-----------------10-8-----------10-12---10-8---------------
         --------9-7--9-9----------------9-7-----7--9-7-------9-7--9-9---------------9-7---7-9-7h9-
         ------------------------------------9-9----------------------------------------
  • G
    Cuando camino solo 
               C            G
    trato que nada me distraiga
    
    seguramente estoy colgado en esas cosas
         C                  G
    que nadie te puede explicar
    
    Armando mi propia religion, 
    mi espiritu esta tratando de encontrar
    una buena razon para justificar
    vivir en este lugar
    
    D
    Pero ahora no quiero hacerte pensar
                        G
    porque pensar tanto no es bueno
    D                           C               G
    Eso me lo dijo un viejo que de tristeza se fue al cielo
    
  • bueno les dejo el punteo que hace al principio y al final:
    
    E----------------------------------------------------E
    B----------------------------------------------------B
    G------------7-----------7---------------------------G
    D—7p9—-9-7-9—-7----7-5-7—-5----7-5-7-5-7-7/9—7p9-7---D     X2
    A----------------------------------------------------A
    E----------------------------------------------------E
    
    E--------------------------------------------------------
    B—8p10h8---------10-10p12---8p10h8-----------------------
    G--------9-7—-7p9-------------------9-7—-----7—7p9h7-----
    D----------------------------------------7p9—-9----------
    A--------------------------------------------------------
    E--------------------------------------------------------
    
    -----------------------------------------------------------E
    --8p10h8--------10-10p12---8p10h8--------------------------B
    ---------9-7—7p9------------------9-7-----9h7p9h7p9h7p9h7--G
    --------------------------------------7p9------------------
  • DURANTE LA ESTROFA VA REPITIENDO UNA VEZ CADA UNA:
    
    
       Cuando camino solo trato que nada me distraiga
    e|--------------------------------------------------------------
    B|--------------------------------------------------------------
    G|---------------------------------------0----------------------
    D|-------------------------0---------0h2----------------0-------
    A|-------------------0-0h2----2-3-----------------0-0h2---3-2---
    E|------------------------------------------------------------3-
    
    
      Segur... esas cosas que nadie te puede explicar
    e|-------------------------------------------------------------------
    B|-------------------------------------------------------------------
    G|--------------------------------0----------------0h2-0-------------
    D|--------------------0-------0h2-------------------------0h2-0------
    A|--------------0-0h2---2-3-------------------------------------2----
    E|----------------------------------------------------------------3--
    
    
      Pero ahora... no es bueno
    e|---
  • +
    ¡Colabora con nosotros!
    Envíanos tu versión de esta canción

Letra de Se fue al cielo
Cuando camino solo trato
q nadie me distraiga
seguramente estoy colgado
en esas cosas que
nadie me puede explicar
Armando mi propia religión
mi espiritu está tratando
de encontrar alguna
buena razon para justificar
vivir en este lugar.
Pero ahora no quiero hacertte pensar
porque pensar tanto no es bueno.
Eso me lo dijo un viejo que
de tristeza se fue al cielo.
No quiero ir mas a ningun hospital,
porque ahi nunca me dicen nada.
Creo que un veterinario va a poder
recetar algo para calmar este dolor.
Porque soy mas parecido a un perro de la calle
o a la planta que fumo en casa,
que a los que anhelan sin un gramo de arte
tener fama y dinero y salir en television.
El doctor dice que mucho rockanroll, me puede hacer mal.
Yo no creo nada, agarro la guitarra y empiezo a tocar.
1º SOLO


cuando hay tanto tanto por entender.
Son los que te alientan cuando hablas, cantas
aunque no esten de acuerdo o no afines bien.
Escuche por ahi que el alcohol y el tabaco
mataron mucha gente.
Y chamullando con mi amiga paraguaya
que me dice, pity, añara cope guare
El doctor dice que mucho rockanroll me puede hacer mal.
Yo le digo - Gracias doctor, nos vemos la semana pasada.
Pero ahora no quiero hacerte pensar
porque pensar tanto no es bueno
Eso me lo dijo un viejo que de tristeza se fue al cielo
Se fue al cielo,
pero pudo ir al infierno también,
yo creo que fue al cielo...
2º SOLO

yo creo que fue al cielo...
Emi sos un amigazo de p...madre!!!!




[Se fue al cielo acordes][Se fue al cielo chords]
© LaCuerda.net · notícia legal · privacidade · es · en · pt · contato
DINAMICO