Cifras para Violão e Guitarra » J »Jaguares » Detrás de los cerros (Tab)

Detrás de los cerros
Jaguares

Letras, cifras e tablaturas para violão, guitarra, piano, ukulele e baixo

  • Am
    Ay, que por ti me muero, por ti no puedo
                Em
    Cambiar el curso de los vientos,
    F#m      F      Em
    Se me seca la inocencia, siento que me muero.
    Am
    Ay, que por ti me enredo, entre ballenas
             Em
    Me voy directo a las entrañas
              F#m      F      Em
    Y si hay ángeles les robo, toda su pureza.
        A     Am         C       Em            A
    Quiero saber como llegar a rozarte el alma y ya,
                Am     C           Em         A
    Quiero aprender a poder a amar y después subir.
    
     Am    C       D           F      Am    C
    Ay amor, detrás de los cerros estás tú amor
        D             F          Am     C
    
  •                   Am
    Ay que por ti me muero 
                                Em
    Por ti no puedo cambiar el curso de los vientos 
           F#m       F
    Se me seca la inosencia
    Em 
    Siento que me muero
    Am
    Ay que por ti me enrredo 
                             Em
    Entre ballenas me voy directo a las entra~as
             F#m         F
    Y si hay angeles de robo
    Em             A
    Toda su pureza
              Am          C
    Quiero saber como llegar
         D               A
    A rosarte el alma y ya
    
  •                     Am
     Ay que por ti me muero
     
     por ti no puedo
                 Em
     cambiar el curso de los vientos
             Am        F
     se me seca la inocencia
        Am
     siento que me muero
    
    
      Am      
     ay que por ti me enredo
     
     entre ballenas
               Em
     me voy directo a las entra~as
              Am           F
     y si hay angeles les robo
    
  • Am
    Ay, que por ti me muero, por ti no puedo
    
    Em
    Cambiar el curso de los vientos,
    
    F#m        F             Em
    Se me seca la inocencia, siento que me muero.
    
    Am
    Ay, que por ti me enrredo, entre ballenas
    
    Em
    Me voy directo a las entrañas
    
    F#m        F             Em
    Y si hay ángeles les robo, toda su pureza.
    
    A            Am             C              Em
    Quiero saber como llegar a rozarte el alma y ya,
    
  • Em Am Em Am
    Intro
    
    Am
    Ay, que por ti me muero
    
    por ti no puedo
                Em
    cambiar el curso de los vientos
          F
    se me seca la conciencia
    Am            Em
    siento que me muero
    
    Ay, que por ti me enredo
    entre ballenas
    me voy directo a las entraña
    y si hay ángeles les robo
    toda su pureza
    
    
  • e|-------------------------|
    B|--3-h-5-p-3--------------|
    G|---------------4---------|
    D|-------------------------|
    A|-------------------------|
    E|-------------------------|
    
    Despues que la guitarra 2 toca el riff sola, la guitarra1 toca esto (after
    the guitar2 plays the riff the first time, guitar2 play this) :
    
    e|--5-s-7---3--3-s-5------------------------------------|
    B|-----------------------3--3-s-5---3--5--3-------------|
    G|-----------------------------------------------4--5---|
    D|------------------------------------------------------|
    A|------------------------------------------------------|
    E|------------------------------------------------------|
    
    
    La guitarra1 acompana la voz con los suguientes acordes :
    
    
  • Esta es una buena rola para practicar arpegios menores
    disfrútala...y recuerda escucharla un par de veces para
    agarrar bien los tiempos...
    
      Intro con guitarra
      Am
    G|-------------|-------------|-------------|-------------|
    D|------5h7----|-------------|------5h7-5--|-------------|
    A|---7---------|-------------|---7--------7|-------------|
    E|5---------555|-0-h-5-3-0---|5------------|5--5--5555---|
    
      Ay, que por ti...
      Am            Em            F#m    F      Em 
    G|-------------|-------------|-------------|-------------|
    D|----7--------|-------------|-------------|-------------|
    A|---7------7--|----2------2-|---4----0-3-0|----2------2-|
    E|5-8---5--8-8-|0-3---3-0-3-3|2-5-5--1-----|0-3---3-0-3-3|
    
      Ay, que por ti...
      Am                     Em            F#m       F
    G|----------------------|-------------|---------|--------|
    D|----------------------|-------------|---------|--------|
    A|---7------7----7----7-|----2------2-|-----4---|--0-3-0-|
    E|5-8-8--5-8--5-8--5
  • Que honda, es mi primera trascripción, espero que les sirva, si hay errores me avisan a mi mail.
    Cuando empieza el intro de la guitarra, el teclado acompaña con esto:
    Intro guitarra eléctrica con teclado (nota: cada nota se debe tocar en cada cambio de la guitarra) 
           La5  si5      sol5, sol5 la5         mi5 re5 mi5     re5 mi5 re5 si4 do5 
    e/----------------/--------------------/------------------/----------------------------/
    B/---10__12-- /---8----8__10----/------------------/----------------------------/
    G/--------------/--------------------/----9----7__9--/---7___9----7------------/
    D/-------------/--------------------/------------------/-------------------9---10-/
    
    Letra:
    mi 5 (alargado)  mi5 re5  mi5 re5  mi5 mi5 
    Ay,                    que  por   ti    me  m u e r o,
    Re5  mi5  re5   mi5 mi5
    Por  ti      no     p u e d o 
    Mi5   sol5  mi5  si4  la5  sol4  la4   si4  si4
    Cam biar    el    cur  so   de     los  vien  tos
    Si4 re5  si4 la4  sol4   fa#4 la4 la4
  • +
    ¡Colabora con nosotros!
    Envíanos tu versión de esta canción

Letra de Detrás de los cerros
Ay que por ti me muero

por ti no puedo
cambiar el curso de los vientos
se me seca la inocencia
siento que me muero
ay que por ti me enredo

entre ballenas
me voy directo a las entra~as
y si hay angeles les robo
toda su pureza
Quiero saber como llegar
a rozarte el alma y ya
quiero aprender a poder amar
y despues subir
Ay amor
detras de los cerros estas tu
amor
oculta entre la niebla
estas tu corazon
vigilando el curso del dolor
amor
detras de los cerros estas tu
Ay que por ti me muero
por ti me dejo
caer desnudo sobre las llamas
se me quema la conciencia
no importa si me muero
Ay que por ti yo cambio
mi corazon te lo derramo
me transformo en lo que quieras
pero inyectame tu paz
Quiero saber como llegar
a rozarte el alma y ya
quiero aprender a poder amar
y despues subir
Ay amor
detras de los cerros estas tu
amor
oculta entre la niebla
estas tu corazon
vigilando el curso del dolor
amor
detras de los cerros estas tu
detras de los cerros estas tu
detras de los cerros estas tu
detras de los cerros estas tu
detras de los cerros estas tu




[Detrás de los cerros acordes][Detrás de los cerros chords]
© LaCuerda.net · notícia legal · privacidade · es · en · pt · contato
DINAMICO