Cifras para Violão e Guitarra » J »Los Jaivas » Hijos de la Tierra (Tab)

Hijos de la Tierra
Los Jaivas

Letras, cifras e tablaturas para violão, guitarra, piano, ukulele e baixo

  • INTRO         SIbm  MIbm  FA   x 2
    
     SIbm MIbm FA              SIbm MIbm FA  SIb, MIbm FA
    Amor,         se nos va la vida
         SIbm       MIbm         FA
    Ven, vamos a buscar entonces toda la ternura
    SIbm         MIbm    FA       SIbm MIbm FA
    Toda la hermosura, tesoro del alma
    
    INTER         SIbm  MIbm  FA  x 3
    
       SIbm MIbm             FA
    Volcán   es mi pecho ardiente 
                SIbm  MIbm       FA
    su lava insolente cura las heridas
        MIbm               FA
    cristales de tierra dormida
                   SIbm                MIbm
    serán nuestros besos que en el embeleso
                   FA    SIbm MIbm      FA 
    
  • Intro
    
    G  ----|-----|
    D  ----|-----|
    A  ----|---4-|
    E  --2-|----1|
    
    Figura 1
    
    G  --------------|--------------|
    D  -----331--1-44|3--3-333-4-3--|
    A  1--1----------|-------------4|
    E  --------------|--------------|
    
    Figura 2
    
    G  ------------22|1--1-111-2-1--|
    D  -----442--4---|-------------2|
    A  4--4----------|--------------|
    E  --------------|--------------|
    
    Figura 3
    
    G  --------------|1-1----1-1-----|
    D  --------4-4---|---------------|
    A  4-4-----------|---------------|
    E  --------------|---------------|
    
    Figura 4
    
    G  ----1---2--|-----------|
    D  --2---4----|1-----1----|
    A  4---------4|----3-----3|x2
    E  -----------|--4-----4--|
    
    G  ---------1-2-|----------|
    D  ---1-2-4-----|1---------|
    A  -4-----------|----------|
    E  -------------|----------|
    
    esa son las partes. es para simplificar un pco
    cada figura se repite todo lo q se estima conveniente
    
    
    Intro
    
                                                 _
    Amor, se nos va la vida                       |
    Ven, vamos a buscar entonces toda la ter
  • +
    ¡Colabora con nosotros!
    Envíanos tu versión de esta canción

Letra de Hijos de la Tierra
Amor, se nos va la vida
Ven, vamos a buscar entonces toda la ternura
Toda la hermosura, tesoro del alma
Volcán es mi pecho ardiente
su lava insolente cura las heridas
cristales de tierra dormida
serán nuestros besos que en el embeleso
de otros hijos nuevos tendrán su cabida
Somos hijos de la Tierra
y su palabra es nuestra historia
somos hijos de la Tierra
Somos hijos de la Tierra y su palabra es nuestra historia
Somos hijos de la Tierra
Somos hijos de la Tierra y su palabra es nuestra historia
Somos hijos de la Tierra
(Amor) somos hijos de la Tierra
(Amor) somos hijos de la Tierra
Somos hijos de la Tierra y su palabra es nuestra historia
Somos hijos de la Tierra
Somos hijos de la Tierra y su palabra es nuestra historia
Somos hijos de la Tierra
Ay ven, vamos a invocar con la voz más clara
Las riquezas duras del jardín del mundo
Sultana, cuerpo y maravilla, eres tú la fuente
Remanso y vertiente, guardas las heridas
Ven, vamos a jugar a que somos dueños de todos los sueños
Que tenemos todo el sublime encanto, llama de la vida




[Hijos de la Tierra acordes][Hijos de la Tierra chords]
© LaCuerda.net · notícia legal · privacidade · es · en · pt · contato
DINAMICO