Cifras para Violão e Guitarra » J »Joaquín Sabina » Calle Melancolía (Tab)

Calle Melancolía
Joaquín Sabina

Letras, cifras e tablaturas para violão, guitarra, piano, ukulele e baixo

  • A                  Bm    G      A         D
    Como quien viaja a lomos de una yegua sombría
    A               Bm     G  E            A
    por la ciudad camino, no pregunteis a dónde.
    C                 G       F         A       D
    Busco a caso un encuentro que me ilumine el día
    A                  Bm           G      A        D
    y no hallo más que puertas que niegan lo que esconden.
    
         A           Bm    G     A      D
    Las chimeneas vierten su vómito de humo
    A                Bm  G     E          A
    a un cielo cada vez más lejano y más alto.
    C               G      F   A             D
    Por las paredes ocres se desaparrama el zumo
    A                Bm        G      A     D
    de una fruta de sangre crecida en el asfalto.
    
       A                Bm     G    A        D
    Ya el campo estará verde, debe ser primavera
    
  • A                  Bm    G      A         D
    Como quien viaja a lomos de una yegua sombría
    A               Bm     G  E            A
    por la ciudad camino, no pregunteis a dónde.
    C                 G       F         A       D
    Busco a caso un encuentro que me ilumine el día
    A                  Bm           G      A        D
    y no hallo más que puertas que niegan lo que esconden.
    
    
    Las chimeneas vierten su vómito de humo
    a un cielo cada vez más lejano y más alto.
    Por las paredes ocres se desaparrama el zumo
    de una fruta de sangre crecida en el asfalto.
    
    Ya el campo estará verde, debe ser primavera
    cruza por mi mirada un tren interminable.
    El barrio donde habito, no es ninguna pradera
    desolado paisaje de antenas y de cables.
    
    
  • 4/4: ||D   D/C|D   D/C|D   D/C|D   D/C||
    
          D           D/C             D           D/C
    E|-|------------------0-----0---------------------0-----0---|-|
    B|-|------2-----2--------2----2-------2-----2--------2------|-|
    G|-|----3---3--------3-----3--------3---3--------3-----3----|-|
    D|-|--0------0--------------------0------0------------------|-|
    A|-|--------------3---------------------------3-------------|-|
    e|-|--------------------------------------------------------|-|
    
          D           D/C             D           D/C
    E|-|------------------0-----0---------------------0-----0---|-|
    B|-|------2-----2--------2------------2-----2--------2------|-|
    G|-|----3---3--------3-----3--------3---3--------3-----3----|-|
    D|-|--0------0--------------------0------0------------------|-|
    A|-|--------------3---------------------------3-------------|-|
    e|-|--------------------------------------------------------|-|
    
    Intro: (1° guitarra)
          D       D/C          D       D/C
    
  •     D          C9
                           >
    E------->--------------0----------|
    B-------3--(3)-------3---3---3----|
    G-----2--(2)-(2)---0-------0------|
    D---0-----------------------------|
    A---------------3-----------------|
    E---------------------------------|
    
    
    E-------------------------------------------------------------------------
    B-------------------------------------------------------------------------
    G--------7-5-4\2-0h2-2/\/\/\--7-5-4\2-0----------------bend---------------
    D--4h5h7--------------------------------4h5h7-4-0-------/)----------------
    A--------------------------------------------------0h3--7---5-5/7---5-5---
    E----------------------------------------------------------------7--------
    
    
                                         A
    E------------------------------------5---|
    
  •       D           D/C                D           D/C
    e|-|----------------------0-----(0)----------------------0------(0)---|-|
    B|-|------3------------3----3-------------3------------3----3---------|-|
    G|-|----2---(2)-----2---------2---------2---(2)-----2---------2-------|-|
    D|-|--0-------------------------------0-------------------------------|-|
    A|-|--------------3-------------------------------3-------------------|-|
    E|-|------------------------------------------------------------------|-|
    
    
    
    Intro: (1º guitarra)
    
    e|-|--------------------------------------------------------|-|
    B|-|--------------------------------------------------------|-|
    G|-|---------7-5-4\2-0h2-2--7-5-4\2--0----------------------|-|
    D|-|--4p5-7---------------------------------4p5-7-4---------|-|
    A|-|-------------------------------------------------2-3----|-|
    E|-|--------------------------------------------------------|-|
    
    e|-|---------------------------------------------------0------|-|
    
  • +
    ¡Colabora con nosotros!
    Envíanos tu versión de esta canción
  • Tutorial
    Como tocar calle Melancolía de Sabina; How to play Calle Melancolia; Karma Guitar
    9:53

Letra de Calle Melancolía
Como quien viaja a lomos de una yegua sombría
por la ciudad camino, no pregunteis a dónde.
Busco a caso un encuentro que me ilumine el día
y no hallo más que puertas que niegan lo que esconden.
Las chimeneas vierten su vómito de humo
a un cielo cada vez más lejano y más alto.
Por las paredes ocres se desaparrama el zumo
de una fruta de sangre crecida en el asfalto.
Ya el campo estará verde, debe ser primavera
cruza por mi mirada un tren interminable.
El barrio donde habito, no es ninguna pradera
desolado paisaje de antenas y de cables.
Vivo en el número siete, calle melancolía
quiero mudarme hace años al barrio de la alegría.
Pero siempre que lo intento ha salido ya el tranvía
en la escalera me siento a silbar mi melodía.
Como quien viaja a bordo de un barco enloquecido,
que viene de la noche y va a ninguna parte.
Así mis pies descienden la cuesta del olvido
fatigados de tanto andar sin encontrarte.
Luego (2), de vuelta a casa, enciendo un cigarrillo
ordeno mis papeles, resuelvo un crucigrama.
Me enfado con las sombras que pueblan los pasillos
y me abrazo a la ausencia que dejas en mi cama.
Trepo (2),por tu recuerdo, como una enredadera
que no encuentra ventanas donde agarrarse. Soy
esa absurda epidemia que sufren las aceras,
si quieres encontrarme, ya sabes donde estoy.
Vivo en el número siete, calle melancolía...




[Calle Melancolía acordes][Calle Melancolía chords]
© LaCuerda.net · notícia legal · privacidade · es · en · pt · contato
DINAMICO