Cifras para Violão e Guitarra » J »Joaquín Sabina » Contigo (Tab)

Contigo
Joaquín Sabina

Letras, cifras e tablaturas para violão, guitarra, piano, ukulele e baixo

  • INTRO: RE SOL SIm FA# SOL LA SIm MI LA7                  ORIGINAL RE
    
    
          RE                   SOL
    Yo no quiero un amor civilizado,
          SIm                  SOL
    con recibos y escena del sofá;
          RE                     RE4
    yo no quiero que viajes al pasado
                     RE3                  SOL
    y vuelvas del mercado con ganas de llorar.
    
          LA                   SIm
    Yo no quiero vecinas con pucheros;
          SOL                     RE
    yo no quiero sembrar ni compartir;
          SOL                 MI
    yo no quiero catorce de febrero,
             LA7
    ni cumpleaños feliz.
    
  • Intro D / G7  / Bm F#7/ G7  A / Bm E/ A7
    
            D                  G
    Yo no quiero un amor civilizado,
          Bm        F#          G
    con recibos y escena del sofá;
             D                  D/C#
    yo no quiero que viajes al pasado
                     D/C                  G/B
    y vuelvas del mercado con ganas de llorar.
    
             A                  Bm
    Yo no quiero vecinas con pucheros;
             G                     D
    yo no quiero sembrar ni compartir;
             G                 E
    yo no quiero catorce de febrero
             A7
    ni cumpleaños feliz.
    
    
  • D G D F# G A Bm E A7
    
    
           D                   G
    Yo no quiero un amor civilizado,
           Bm           F#     G
    con recibos y escena del sofá;
           D                     A
    yo no quiero que viajes al pasado
                      D7
    y vuelvas del mercado
                      G
    con ganas de llorar.
             A                  Bm
    Yo no quiero vecinas con pucheros;
             G                     D
    yo no quiero sembrar ni compartir;
             G                  E7
    yo no quiero catorce de febrero
             A
    
  •              E               A                                          B 
    e--------------------------------|------------------------------|--------------
    B------------9--12--10--9-9v-10--|----------9-9-----9-----------|-----9--------
    G----9---11-(9)--------------(9)-|---9--11------11-----(11)-9---|-9-----11-----
    D-----------(9)-------------(11)-|------------------------------|--------------
    A--------------------------------|------------------------------|--------------
    E--------------------------------|------------------------------|--------------
    
                                            |ESTAS 3 NOTAS NO ESTOY MUY SEGURO SI ESTEN CORRECTAS)
    e----9----------------------------------|------11---14------
    B--------12---9------------9------------|--12---------------
    G----------------8--9--11----11--9--11--|-------------------
    D---------------------------------------|-------------------
    A---------------------------------------|-------------------
    E---------------------------------------|-------------------
    
    AQUI ACLARO QUE LAS LETRAS DESPUES DE LA DIAGONAL SIGNIFICAN EL BAJEO
    -- DE AQUI EN ADELANTE CAMBIA EN CADA VERSO 
    *  NO ESTOY MUY SEGURO DE ESTE ARREGLO, PERO SUENA
            e B G D A E
    
  • G                     D
    Y morirme contigo si te matas
    F#                   G
    ¿Y matarme contigo si te mueres
    E                   Bm
    Porque el amor cuando no muere mata
    G               A
    Porque amores que matan nunca mueren
    
    Lo demás es igual, con e excepción de esta parte
    
    1|------0------0-|------0------0-|------0-------0-|---------1----|e
    2|----0------0---|----3------3---|----1-------1---|-----1h2----1-|b
    3|----2------2---|----0------0---|----0-------0---|-----1------1-|g
    4|----3------3---|--0------0-----|--2-------2-----|---3------3---|d
    5|--3------3-----|---------------|0-------0-------|--------------|a
    6|-1------1------|3------3-------|----------------|-1------------|e
    No me esperes a las doce en el juzgado, no me digas volvamos a empezar
    
    Fin
    
  •            D                G
    ---------------------2----------------3
    ------------------3----3-----------3----3
    ---------------2----------------0---------
    -----------0-------------------------------
    ----------------------------------------------
    ----------------------------3---------
    Yo no    quiero un  amor civilizado,
    
           Bm                  G
    --------------------2-----------------3
    -----------------3----3------------3-----3
    -------------4-----------------0---------
    ------------------------------------------
    ---------2-----------------------------
    ----------------------------3---------
    con   recibos y escena del sofá;
    
                D                Bm
    ---------------------2-------------------2
    
  • +
    ¡Colabora con nosotros!
    Envíanos tu versión de esta canción
  • Tutorial
    HD
    Como Tocar Guitarra "Contigo a La Distancia"
    2:57
  • Tutorial
    HD
    Como tocar Contigo - Joaquin Sabina (Acordes Guitarra - Tutorial Mejorado)
    11:46

Letra de Contigo
Yo no quiero un amor civilizado,
con recibos y escena del sofá;
yo no quiero que viajes al pasado
y vuelvas del mercado con ganas de llorar.
Yo no quiero vecinas con pucheros;
yo no quiero sembrar ni compartir;
yo no quiero catorce de febrero,
ni cumpleaños feliz.
Yo no quiero cargar con tus maletas;
yo no quiero que elijas mi champú;
yo no quiero mudarme de planeta,
cortarme la coleta, brindar a tu salud.
Yo no quiero domingos por la tarde;
yo no quiero columpio en el jardin;
lo que yo quiero corazón cobarde,
es que mueras por mí.
Y morirme contigo si te matas
y matarme contigo si te mueres,
porque el amor cuando no muere mata,
porque amores que matan nunca mueren.
Yo no quiero juntar para mañana,
no me pidas llegar a fin de mes;
yo no quiero comerme una manzana
dos veces por semana, sin ganas de comer.
Yo no quiero calor de invernadero;
yo no quiero besar tu cicatriz;
yo no quiero Paris con aguacero,
ni Venecia sin ti.
No me esperes a las doce en el juzgado;
no me digas, volvamos a empezar;
yo no quiero ni libre, ni ocupado,
ni carne, ni pecado, ni orgullo, ni piedad.
Yo no quiero saber por que lo hiciste;
yo no quiero contigo ni sin ti;
lo que yo quiero, muchacha de ojos tristes,
es que mueras por mi.
Y morirme contigo si te matas
y matarme contigo si te mueres,
porque el amor cuando no muere mata,
porque amores que matan nunca mueren.
Y morirme contigo si te matas
y matarme contigo si te mueres,
porque el amor cuando no muere mata,
porque amores que matan nunca mueren.
(Porque amores que matan nunca mueren).
Y morirme contigo si te matas…




[Contigo acordes][Contigo chords]
© LaCuerda.net · notícia legal · privacidade · es · en · pt · contato
DINAMICO