Cifras para Violão e Guitarra » J »Joaquín Sabina » Tan joven y tan viejo (Tab)

Tan joven y tan viejo
Joaquín Sabina

Letras, cifras e tablaturas para violão, guitarra, piano, ukulele e baixo

  • F                                    A soste.               
    Lo primero que quise fue marcharme bien lejos
                   Gm C7                  F       
    En el album de cromos de la resignacion
    F                                   A soste.
    Pegabamos los niños que odiaban los espejos
                  Gm C7                       F
    Guantes de Rita Hayworth, calles de Nueva York.
    
    Apenas vi que un ojo me guiñaba la vida
    Le pedi que a su antojo dispusiera de mi
    Ella me dio las llaves de la ciudad prohibida
    Yo todo lo que tengo que es nada se lo di
    
    Asi creci volando y vole tan de prisa
    Que hasta mi propia sombra de vista me perdio
    Para borrar mis huellas destroce mi camisa
    Confundi con estrellas las luces de neon
    
    PUNTEO
    
  • Intro:  MI  DO#m  SI  LA6  LA   MI
    
    
             MI    (FA#m)   MI               LA   LA6 LA
    VOZ: Lo primero que quise, fue marcharme bien lejos,
                   FA#m         SI   LA6      MI  (SI7)
         en el álbum de cromo,    De la resignación.
    
         Pegábamos los niños, que odiaban los espejos,
                               SI    SI7      MI
         guantes de Rita Hayworth, Calles de Nueva York.
    
         Apenas vi que un ojo, me guiñaba la vida,
         le pedí que a su antojo  Dispusiera de mí.
    
         Ella me dio las llaves  de la ciudad prohibida
         yo todo lo que tengo    que es nada se lo di
    
    
                MI  MI7   MI7                 LA  LA6  LA
    
  • G/B D2 (x2) G/B G/F# Em7 A7sus4 A7 D2
    
    [ESTROFA]
                        D2                      G/B
    Lo primero que quise fue marcharme bien lejos
         G/F        Em7        A7sus4 A7    D2    G/B
    En el album de cromos de la resignacion
                   D2                   G/B
    Pegabamos los niños que odiaban los espejos
         G/F          Em7       A7sus4      A7   D2    G/B
    Guantes de Rita Hayworth, calles de Nueva York.
                      D2               G/B
    Apenas vi que un ojo me guiñaba la vida
         G/F          Em7   A7sus    A7       D2    G/B
    Le pedi que a su antojo dispusiera de mi
                   D2               G/B
    Ella me dio las llaves de la ciudad prohibida
         G/F       Em7    A7sus      A7   D2    G
    Yo todo lo que tengo que es nada se lo di
    [ESTRIBILLO]
    
  • E||----3--5-----8--8-----8-----7--7----3-5-7--8--7-7--3--||
    B||----3-----5-----5--5------3----3----3------8--8-8--5--||
    G||--4---------------------------------------------------||
    D||------------------------------------------------------||
    A||------------------------------------------------------||
    e||------------------------------------------------------||
                          
    E||--3-5-7--8--7-7--|-------------------------------------||
    B||--5-5-8--8--8-8--|----------1h0-------0h1h0------------||
    G||-----------------|------0-------2-0----------2h0-------||
    D||-----------------|----2---2----------------------------||
    A||-----------------|--3----------------------------------||
    e||-----------------|----------------------------------3--||
    
    Esta es mas o menos la intro, se mezcla por que son dos guitarras,
    Una puntea la otra apergea los acordes de la intro. 
    
    [0:24]
    
    G
    
  •                    G             C          C/B  Am    C
    e---3-5-7--8-8--8--7---3-5-7-8-7-7-3---3-5-7-8-7-7--5----------------
    B-----------------------------------------------------------1-0-1-0--
    G--4--5-7-9--9-9--7----4-5-7-9-7-7-4---3-5-7-9-7-7--5------0---0-----
    D-------------------------------------------------------0h2----------
    A------------------------------------------------------3-------------
    E--------------------------------------------------------------------
              G
    e----------------3-------
    B------------Oh1--1-0----
    G------------------------
    D----------0-------------
    A-3h5/7------------------
    E---------3--------------
    
                        G                     C
    Lo primero que quise, fue marcharme bien lejos,
            C/B     Am  D/F#            G
    en el álbum de cromo, de la resignación.
    Pegábamos los niños, que odiaban los espejos,
    
  • E |-----------0---------0--2--4----|--5--------5--5-----4-------0--2--4---|
    B |--0--------0--------------------|--------------------------------------|
    G |--------1------------1--2--4----|--6--------6--6-----4-------1--2--4---|
    D |--------------------------------|--------------------------------------|
    A |--------------------------------|--------------------------------------|
    E |--0-----------------------------|--------------------------------------|
    
    
    
    
    ---4h-5-----4h-5-----4----------------0----------0----------0-----2-----4----|
    --------------------------0------------------0-------------------------------|
    ---4--------4-------------------4---------------------------1-----2-----4----|
    -----------------------------------------------------------------------------|
    ---------------------4-------------------------------------------------------|
    -----------------------------------------------------------------------------|
    
    
    ----4h-5-----4h-5-----4-----------------2h-4h-2-----------------------------
    ----------------------------5-----------------------5-----------------5-----
    
  • +
    ¡Colabora con nosotros!
    Envíanos tu versión de esta canción
  • Tutorial
    HD
    Como tocar Tan joven y tan viejo - J. Sabina - guitarra FACIL tutorial acordes Like a rolling stone
    7:16

Letra de Tan joven y tan viejo
Lo primero que quise fue marcharme bien lejos
En el album de cromos de la resignacion
Pegabamos los niños que odiaban los espejos
Guantes de Rita Hayworth, calles de Nueva York.
Apenas vi que un ojo me guiñaba la vida
Le pedi que a su antojo dispusiera de mi
Ella me dio las llaves de la ciudad prohibida
Yo todo lo que tengo que es nada se lo di
Asi creci volando y vole tan de prisa
Que hasta mi propia sombra de vista me perdio
Para borrar mis huellas destroce mi camisa
Confundi con estrellas las luces de neon
PUNTEO
Hice trampas al poker, defraude a mis amigos
Sobre el banco de un parque dormi como un leon
Por decir lo que pienso sin pensar lo que digo
Mas de un beso me dieron y mas de un bofeton
Lo que se del olvido lo aprendi de la luna
Lo que se del pecado lo tuve que buscar
Como un ladron debajo de la falda de alguna
De cuyo nombre ahora no me quiero acordar
Asi que de momento nada de adios muchachos
Me duermo en los entierros de mi generacion
Cada noche me invento, todavia me emborracho
Tan joven y tan viejo, like a Rolling Stone.




[Tan joven y tan viejo acordes][Tan joven y tan viejo chords]
© LaCuerda.net · notícia legal · privacidade · es · en · pt · contato
DINAMICO