Cifras para Violão e Guitarra » J »Jorge Veloza » La Cucharita (Tab)

La Cucharita
Jorge Veloza

Letras, cifras e tablaturas para violão, guitarra, piano, ukulele e baixo

  • RE                  LA
    EN LA VEREDA VELANDIA DEL MUNICIPIO DE SABOYA
                                    RE
    UNA CUCHARITA E' HUESO ME REGALARON POR AMISTAD (BIS)
     (CORO)
    Y LA CUCHARITA SE ME PERDIO
    LA
    LA CUCHARITA SE ME PERDIO
    RE
    LA CUCHARITA SE ME PERDIO
    LA
    LA CUCHARITA SE ME PERDIO
    RE
    LA CUCHARITA SE ME PERDIO
    
    11-11-11-11-11-11-11-11-23-10-11-11-11-10-23-21
    21-21-23-10-10-10-23-21-20-20-20-20-20-21-23-23
    23-21-20-21
    
    RE                      LA
    
  •  G                                       D7
    e -10-8-7-8-7----7----------7-10-8-7-8-7-----|
    B ------------10--10---8-10--------------10῀-|
    G -------------------------------------------|
    D -------------------------------------------|
    A -------------------------------------------|
    E -------------------------------------------|
    
                            G
    e -8-7----7------------------8-7----7------------
    B ------10---10-8-10-8-7-8-10-----10---10-8῀-----
    G -----------------------------------------------
    D -----------------------------------------------
    A -----------------------------------------------
    E -----------------------------------------------
    
    
    Parte 2
       C                                              G
    e 10/12-12-12-12῀-12-12῀-8-10-8-10/12-12῀-12-10-8-7῀|
    
  • E ----9-7-6-7-6--6-------6-9-7-7-7-7-6----
    B --------------9---7-7-9---------------9-
    G-----------------------------------------
    D-----------------------------------------
    A-----------------------------------------
    E-----------------------------------------
    
    E-7-6--6---------------7-6-6-6-6----------
    B-----9-9-7-9-6--6-7-9-----------9-7------
    G-----------------------------------------
    D-----------------------------------------x 2(
    A-----------------------------------------
    E-----------------------------------------
    
    2 intro:
    E -9/12--12-12-12-12-12--9-10-12--10-10-10-10-10-9-7--7-9-10-9-9-9-9-7
    B---------------------------------------------------------------------
    G---------------------------------------------------------------------
    D---------------------------------------------------------------------
    A---------------------------------------------------------------------
    
  • E |--10-8--7--8--7-----7-----------7--10L--|
    B |-----------------10----8-----8----------|
    G |--------------------------7-------------|
    D |----------------------------------------|
    A |----------------------------------------|
    E |----------------------------------------|
    
    
    --10-8--7--8-----7----------------------|
    --------------------10------------------|
    ----------------------------------------|
    ----------------------------------------|
    ----------------------------------------|
    ----------------------------------------|
    
    
    --8--7-----7-----------------------8L---|--8--7-----7---------------------||
    --------10----10-8--10-------7--10------|--------10-------10-8------------||
    -----------------------7--7-------------|--------------------------------o||
    ----------------------------------------|--------------------------------o||
    
  • +
    ¡Colabora con nosotros!
    Envíanos tu versión de esta canción

Letra de La Cucharita
EN LA VEREDA VELANDIA DEL MUNICIPIO DE SABOYA
UNA CUCHARITA E' HUESO ME REGALARON POR AMISTAD (BIS)
Y LA CUCHARITA SE ME PERDIO
LA CUCHARITA SE ME PERDIO
LA CUCHARITA SE ME PERDIO
LA CUCHARITA SE ME PERDIO
LA CUCHARITA SE ME PERDIO
11-11-11-11-11-11-11-11-23-10-11-11-11-10-23-21
21-21-23-10-10-10-23-21-20-20-20-20-20-21-23-23
23-21-20-21
Y COMO A LOS 15 DIAS EN PLENO CENTRO DE BOGOTA
ME ROBARON LOS PAPELES, LA CUCHARITA Y NO SE Q MAS(BIS)
Y LA CUCHARITA SE ME PERDIO
LA CUCHARITA SE ME PERDIO
LA CUCHARITA SE ME PERDIO
LA CUCHARITA SE ME PERDIO
LA CUCHARITA SE ME PERDIO
11-11-11-11-11-11-11-11-23-10-11-11-11-10-23-21
21-21-23-10-10-10-23-21-20-20-20-20-20-21-23-23
23-21-20-21




[La Cucharita acordes][La Cucharita chords]
© LaCuerda.net · notícia legal · privacidade · es · en · pt · contato
DINAMICO