Cifras para Violão e Guitarra » J »José Alfredo Jiménez » Serenata Huasteca (Tab)

Serenata Huasteca
José Alfredo Jiménez

Letras, cifras e tablaturas para violão, guitarra, piano, ukulele e baixo

  •  C                      G7
    Canto al pie de tu ventana
                            C
    pa que sepas que te quiero
                           G7
    tu a mi no me quieres nada
                        C
    pero yo por ti me muero
    
    
    C7                     F
    Dicen que ando muy herrado
    C7                     F
    que despierte de mis sueños
            C7        C
    pero se han equivocado
            G7                C
    por que yo he de ser tu dueño
    
    
    
  • para la petición de varios perrines que lo quieren en do....
    armonizado en do mayor
    e------8----------------------
    B-----8--12-10-8-10-12-13-8-5-
    G----9------------------------
    D--10-------------------------
    A-10--------------------------
    E-----------------------------
    
    
    
    e-12-12--10-10---8-7-5-7
    B-13-13--12-12--10-8-7-8
    G-----------------------
    D-----------------------
    A-----------------------
    E-----------------------
    
    e-7-9-7--5-8-5----7-9-7--5-8-5
    B-8-8-8--7-7-7----8-8-8--7-7-7
    G-----------------------------
    D-----------------------------
    A-----------------------------
    E-----------------------------
    
    
    e-7-5-3-5-3-1-0---------------
    B-8-7-5-6-5-3-1---------------
    G-----------------------------
    D-----------------------------
    A-----------------------------
    E-----------------------------
    
    
    que les parece, gracias por confiar su petición en mi, bye
  • Armoniza en Mi mayor
    
    
    
    G---------------------------------------
    B--------12-------12-9-17-17-16-16-14-12
    e-12-11-9--9-11-12-----16-16-14-14-12-11
    
    G---------------------------------------
    B-12-12-12--10-10-10--12-12-12--10-10-10
    e-11-13-11---9-12--9--11-13-11---9-12--9
    
    G-----------------
    B-12-10-9-10-9-7-5
    e-10--9-7--9-7-5-4
    
    
    la puse en Do, solo transpoeten los acordes o pidanme el requinto en Do, como les paresca
    
    
    atte: el único que no la caga, yo!
  • +
    ¡Colabora con nosotros!
    Envíanos tu versión de esta canción

Letra de Serenata Huasteca
Canto al pie de tu ventana
pa que sepas que te quiero
tu a mi no me quieres nada
pero yo por ti me muero
Dicen que ando muy herrado
que despierte de mis sueños
pero se han equivocado
por que yo he de ser tu dueño
Que voy ha hacer
si deveras te quiero
ya te adore
y olvidarte no puedo
Que voy ha hacer
si deveras te quiero
ya te adore
y olvidarte no puedo
Dicen que pa conseguirte
nesesito una fortuna
que debo bajar del cielo
las estrellas y la luna
Yo no bajare la luna
ni las estrellas tampoco
y aunque no tengo fortuna
me querras poquito a poco
Que voy ha hacer
si deveras te quiero
ya te adore
y olvidarte no puedo
Que voy ha hacer
si deveras te quiero
ya te adore
y olvidarte no puedo
Yo se que hay muchas mujeres
y que sobra quien me quiera
pero ninguna me importa
Mi corazon te ha escogido
y llorar no quiero verlo
ya el pobre mucho ha sufrido
ahora tienes que quererlo
Que voy ha hacer
si deveras te quiero
ya te adore
y olvidarte no puedo
Que voy ha hacer
si deveras te quiero
ya te adore
y olvidarte no puedo
Que les parece, y recuerden ya lo
dijo el viejo dicho: ' La cagan
Perrillos ' si quieren una transcripcion
ya saben a donde llamar o avisar,
con tres peticiones




[Serenata Huasteca acordes][Serenata Huasteca chords]
© LaCuerda.net · notícia legal · privacidade · es · en · pt · contato
DINAMICO