Cifras para Violão e Guitarra » J »Jorge Gonzalez » Fe (Tab)

Fe
Jorge Gonzalez

Letras, cifras e tablaturas para violão, guitarra, piano, ukulele e baixo

  • E|-------0-----|-------0-----|-------0-----|
    B|-----0---0---|-----0---0---|-----0---0---|
    G|---0-------0-|---0-------0-|---0-------0-|
    D|-------------|-------------|-------------|
    A|-------------|-------------|-------------|
    E|-0-----------|-0-----------|-0-----------|
    
    
    el arpegio se puede mantener toda la canción si así gusta obviamente
    cambiando al bajo respectivo
    
    INTRO: Em
    
    -"Un teléfono"-
    
    
    VERSO:
    
    Em                  Am
    Dama, yo soy quien habla,
    
  • E|-------------|-------------|-------------|-------------|
    B|-----0-------|-----0-------|-----0-------|-----0-------|
    G|---0-----0---|---0-----0---|---0-----0---|---0-----0---|
    D|--2-------2--|--2-------2--|--2-------2--|--2-------2--|
    A|-------------|-------------|-------------|-------------|
    E|-0-----------|-0-----------|-0-----------|-0-----------|
    
    
    el arpegio se puede mantener toda la canción si así gusta obviamente
    cambiando el acorde correspondiente.
    
    
    -"Un teléfono"-
    
    
    VERSO:
    
    Em                  Am
    Dama, yo soy quien habla,
    F#   Am              B7
    
  • INTRO: Em
    
    -"Un telefono"-
    
    
    VERSO:
    
    Em                 Am
    Dama, yo soy quien habla,
    F#m-Am            B 
     ahhhh,    ¿Como estas?
    Em           Am
    Calla, solo te quiero,
    F#m-Am        B
     ahhhh, tranquilizar.
    
    
    CORO:
      E                           A       B
    Escuchame una vez, lo que voy a contar
    
  • +
    ¡Colabora con nosotros!
    Envíanos tu versión de esta canción

Letra de Fe
-"Un telefono"-
VERSO:
Dama, yo soy quien habla,
ahhhh, ¿Como estas?
Calla, solo te quiero,
ahhhh, tranquilizar.
Escuchame una vez, lo que voy a contar
Sabes que vuelvo a tener fé, y empiezo a sanar,
Dama escuchame una vez, no, no, no,
No voy a pedir amor,
te vez feliz y me gusta que seas feliz.
VERSO:
Sabes con los recuerdos,
ahhhh, de nuestro amor
Dice, mi propio sueño,
ahhhh, pero no, no no no no.
Escuchame una vez, todo tiene final.
Sabes que vuelvo a tener fé, y empiezo a sanar,
Dama escuchame una vez, no, no, no,
Sabes escuchame esta vez, por favor,
seré feliz y yo se me quieres feliz.




[Fe acordes][Fe chords]
© LaCuerda.net · notícia legal · privacidade · es · en · pt · contato
DINAMICO