Cifras para Violão e Guitarra » J »Juan Gabriel » Amor Eterno (Tab)

Amor Eterno
Juan Gabriel

Letras, cifras e tablaturas para violão, guitarra, piano, ukulele e baixo

  • RE            SI7           MIm
    Tù eres la tristeza de mis ojos
          LA7                      RE
    que lloran en silencio por tu amor
                    SI7
    me miro en el espejo
                  MIm
    y veo en mi rostro
         LA7
    el tiempo que he sufrido
             RE
    por tu adiòs.
    
                     SI7
    Obligo a que te olvide
            MIm
    el pensamiento
           LA7
    pues siempre estoy pensando
           RE
    
  • (C mayor)
    
    Intro: Am - D7 Am - D7 - G x2
           Dm - G - Dm - G - C - F - C - Dm - G - C
    
    C               Cmaj7
    Tu eres la tristeza
                Dm - G7
    ay de mis ojos
        Dm        G7
    que lloran en silencio
    C       Cmaj7
    por tu amor
       C           Cmaj7
    me miro en el espejo
                Dm - G7
    y veo en mi rostro
       Dm            G7
    el tiempo que he sufrido
           C
    
  • Em en LA 6ta cuerda,
    A7 En la 5ta cuerda
    Dmaj7 en LA 4ta cuerda
    G en la 6ta cuerda
    
    Intro
    
    D
    
    Em  A7  Em  A7  D  Dmaj7  D  Dmaj7 (x2)
    
    D              Dmaj7       Em     A7
    Tu eres la tristeza de mis ojos
         Em         A7             D  Dmaj7
    que lloran en silencio por tu amor
       D             Dmaj7            Em    A7
    me miro en el espejo y veo en mi rostro
       Em             A7             D  Dmaj7
    el tiempo que he sufrido por tu adios
    
    
  •    D         F#m
    Tu eres la tristeza 
              Em   A7
    ay de mis ojos
          Em         A7
    que lloran en silencio 
             D
    por tu amor
                    F#m
    me miro en el espejo 
                Em    A7
    y veo en mi rostro
         Em             A7
    el tiempo que he sufrido 
              D
    por tu adios
        D              F#m
    obligo a que te olvide
              Em  A7
    el pensamiento
    
  • RE            SI7           MIm
    1)Tù eres la tristeza de mis ojos
          LA7                      RE 
    que lloran en silencio por tu amor
                    SI7
    me miro en el espejo
                  MIm
    y veo en mi rostro
         LA7
    el tiempo que he sufrido
             RE 
    por tu adiòs.
                       SI7
    2)Obligo a que te olvide
            MIm 
    el pensamiento
           LA7            
    pues siempre estoy pensando
           RE
    en el ayer
    
  • Esta parte es la del inicio y
    se repite 2 veces
    
    E]------------------------------------
    A]------------------------------------
    D]------------------------------------
    G]------------------------------------
    B]------------------------------------
    e]2-5-3-5-3-5-3-5-3-5-3-5-3-5-7-5-3-2-
    
    Despues de esa entra esta parte antes de
    que empieza la letra.
    E]---------------------------------------------
    A]---------------------------------------------
    D]---------------------------------------------
    G]---------------------------------------------
    B]---------------------------------------------
    e]10-12-10-12-10-12-10-12-10-12-10-12-10-12-15-
    
    E]---------------------------------------
    A]---------------------------------------
    D]---------------------------------------
    G]---------------------------------------
    B]-------------------3-------------------
    e]12-10-9--2-5-3-2-0---0-2-3-3-2-3-5-7-7-
    
    E]---------------------------------------
    A]---------------------------------------
    D]-------------------------
  • Esto se toga por toda la cancion
    
    E--0--0-5-5---0--0-5-5------------------------
    A-----------------------5--5-0-0---5--5-0-0---
    D---------------------------------------------
    G---------------------------------------------
    
    Esto se toga en el coro
    
    E--0--0-5-5---0--0-5-5------------------------
    A-----------------------5--5-0-0---5--5-0-0---
    D---------------------------------------------
    G---------------------------------------------
    
    E--0--0-0--0-2-3--3-3---5--5-5------------------------
    A-------------------------------5--5-0-0---5--5-0-0---
    D-----------------------------------------------------
    G-----------------------------------------------------
    
    E--0--0-5-5---0--0-5-5------------------------
    A-----------------------5--5-0-0---5--5-0-0---
    D---------------------------------------------
    G---------------------------------------------
    
    E--0--0-0--0-2-3--3-3---5--5-5------------------------
    A-------------------------------5--5-0-0---5--5-0-0---
    D------------------------------------------
  • +
    ¡Colabora con nosotros!
    Envíanos tu versión de esta canción

Letra de Amor Eterno
1)Tù eres la tristeza de mis ojos
que lloran en silencio por tu amor
me miro en el espejo
y veo en mi rostro
el tiempo que he sufrido
por tu adiòs.
2)Obligo a que te olvide
el pensamiento
pues siempre estoy pensando
en el ayer
prefiero estar dormido
que despierto
de tanto que me duele que no estès.
Còmo quisiera
que tù vivieras
que tus ojitos
jamàs se hubieran cerrado nunca
y estar miràndolos
amor eterno e inolvidable
tarde o temprano estarè contigo
para seguir amàndonos.
1)Yo ha sufrido tanto por tu ausencia
desde ese dìa hasta hoy no soy feliz
aunque tengo tranquila
sè que pude haber yo hecho
màs por ti.
2)Oscura soledad estoy viviendo
la misma soledad de tu sepulcro
tù eres el amor del cual yo tengo
el màs triste recuerdo de Acapulco.
Como quisiera............




[Amor Eterno acordes][Amor Eterno chords]
© LaCuerda.net · notícia legal · privacidade · es · en · pt · contato
DINAMICO