Cifras para Violão e Guitarra » J »Juan Gabriel » Se me olvidó otra vez (Tab)

Se me olvidó otra vez
Juan Gabriel

Letras, cifras e tablaturas para violão, guitarra, piano, ukulele e baixo

  •   FA
    1)Probablemente ya
                    DO7
    de mi te has olvidado
    
    y mientras tanto yo
                   FA
    te seguirè esperando
    
    no me he querido ir
                      DO7
    para ver si algùn dìa
                     SIb
    que tu quieras volver
    DO7              FA
    me encuentres todavìa
    
    
    1)Por eso aun estoy
    en el lugar de siempre
    
  • e|------------------------------------|
    B|------------------------------------|
    G|------------------4--------------4--|
    D|----1------1-------------1----------|
    A|------------------------------------|
    E|------------------------------------|
       Pro    -  ba   - ble -  men  -  te
    
                   MI
    Probablemente ya
                    SI7
    de mi te has olvidado
    
    y mientras tanto yo
                   MI
    te seguirè esperando.
    
    
                      MI
    No me he querido ir
    
  • Parte 1
    e---5--5--3--5--3--5--2--2---2--|-7--5--5--3--7--7--5--7--5--7---|
    b---7--7--5--7--5--7--3--3---3--|-8--7--7--5--8--8--7--8--7--8---|
    g-------------------------------|--------------------------------|
    D-------------------------------|--------------------------------|
    A—------------------------------|—-------------------------------|
    E-------------------------------|--------------------------------|
    
    e--3--3--3---9--7--7--5--|---10--10--9---10--9--|-10---5--5---5--|
    b--5--5--5--10--8--8--7--|---12--12--10--12--10-|-12---7--7---7--|
    g------------------------|----------------------|----------------|
    D—-----------------------|----------------------|----------------|
    A------------------------|----------------------|----------------|
    E------------------------|----------------------|----------------|
    
    e---12--10--10--9---9---|--7--9---7--9---9---|--10--9---10--9--7-5-|
    b---14--12--12--10--10--|--8--10--8--10--10--|--12--10--12--10-8-7-|
    g.----------------------|--------------------
  • Esta canción no esta en su versión original, 
    Bájenla un poco de tonos hasta llegar al original
    D
    Probablemente ya
    Fa# fa# mi fa# mi fa#
    
                     A7
    de mi te has olvidado
    re re re sol  fa# fa# mi
    
    A7
    y mientras tanto yo
    sol sol fa# sol fa# sol
    
                   D
    te seguirè esperando.
    mi mi mi la sol sol fa#
    
    
    D
    no me he querido ir
    si si la si la si
    
                      A7
    para ver si algùn dìa
    fa# fa# fa# do# si si la
    
    A7
    que tu quieras volver
    la la sol la la sol
    
                      D
    me encuentres todavía.
    la si la si la sol fa#
    
    
                  D
    Por eso aun estoy
    Fa# fa# mi fa# mi fa#
    
                    A7
    en el lugar de siempre
    re re re sol  fa# fa# mi
    
    A7
    en la misma ciudad
    sol sol sol sol fa# sol
    
                    D
    y con la misma gente
    mi mi mi la sol sol fa#
    
    
    D
    para que tu al volver
    si si la si    la si
    
                          A7
    no encuentres nada extraño
    fa# fa# fa# do# si si la
    
    A7
    y sea como ayer
    la la 
  • +
    ¡Colabora con nosotros!
    Envíanos tu versión de esta canción

Letra de Se me olvidó otra vez
1)Probablemente ya
de mi te has olvidado
y mientras tanto yo
te seguirè esperando
no me he querido ir
para ver si algùn dìa
que tu quieras volver
me encuentres todavìa
1)Por eso aun estoy
en el lugar de siempre
en la misma ciudad
y con la misma gente
para que tu al volver
no encuentres nada extraño
y sea como ayer
y nunca màs dejarno
Probablemente estoy
pidiendo demasiado
se me olvidaba que
ya habìamos terminado
que nunca volveras
que nunca me quisiste
se me olvidò otra vez
que solo yo te quise.




[Se me olvidó otra vez acordes][Se me olvidó otra vez chords]
© LaCuerda.net · notícia legal · privacidade · es · en · pt · contato
DINAMICO