Cifras para Violão e Guitarra » J »Julio Jaramillo » Que nadie sepa mi sufrir (Tab)

Que nadie sepa mi sufrir
Julio Jaramillo

Letras, cifras e tablaturas para violão, guitarra, piano, ukulele e baixo

  • REm                               SOLm
    No te asombres si te digo lo que fuiste
           DO                    FA
    una ingrata con mi pobre corazón
              LA7                      REm
    porque el fuego de tus lindos ojos negros
         SOLm                     LA7
    alumbraron el camino de otro amor
    
    REm                          SOLm
    Y pensar que te adoraba tiernamente
             DO                    FA
    que a tu lado como nunca me sentí
          LA7                    REm
    y por esas cosas raras de la vida
         SOLm         LA7        REm
    sin el beso de tu boca yo me vi
    
                 DO7
    Amor de mis amores
    
  •  Am   A7     Dm                  Am                  E
    e-0-1-2-3-4--5-5--7-7--5-5--7-7--5-5--7-7--5-5--7-7--4-4--7-7--4-4--7-7-
    B-1-2-3-4-5--6-6--6-6--6-6--6-6--5-5--5-5--5-5--5-5--5-5--5-5--5-5--5-5-
    G-----------------------------------------------------------------------
       Am
    e---5----5-
    B----5---5-
    G-----5--5-
    
             Am          A7             Dm     E---0-1-3-2-1---
    No te asombres si te digo lo que fuiste    B--3------------
    
           G7                     C                  E-----0-3-1-0--
    una ingrata con mi pobre corazón,                B---1--------3-
                                                     G--0-0-0-------
    
     E                           Am                E--0---------
    porque el fuego de tus lindos ojos negros      B-3-3-1-0----
                                                   G--------2-1-
    
    
  • intro: Gm  Dm  A7 Dm  Gm  Dm  A7 Dm
    
    e-5-6-7--8--9---10-10-12-12--10-10-12-12--
    B-6-7-8--9-10---11-11-11-11--11-11-11-11--
    G-7-8-9-10-11---12-12-12-12--12-12-12-12--
    D-----------------------------------------
    A-----------------------------------------
    E-----------------------------------------
    
    
    e-10-10-12-12---10-10-12-12----9--9--12-12---9--9--12-12--10------10-
    B-10-10-10-10---10-10-10-10---10-10--10-10--10-10--10-10--10-10---10-
    G-10-10-10-10---10-10-10-10----9--9---9--9---9--9---9--9--10---10-10-
    D--------------------------------------------------------------------
    A--------------------------------------------------------------------
    E--------------------------------------------------------------------
    
    
    Dm                               Gm
    No te asombres si te digo lo que fuiste
    
  • +
    ¡Colabora con nosotros!
    Envíanos tu versión de esta canción

Letra de Que nadie sepa mi sufrir
No te asombres si te digo lo que fuiste
una ingrata con mi pobre corazón
porque el fuego de tus lindos ojos negros
alumbraron el camino de otro amor
Y pensar que te adoraba tiernamente
que a tu lado como nunca me sentí
y por esas cosas raras de la vida
sin el beso de tu boca yo me vi
Amor de mis amores
reina mía que me hiciste
que no puedo conformarme
sin poderte contemplar
Ya que pagaste mal
a mi cariño tan sincero
lo que conseguirás
que no te nombre nunca más
Amor de mis amores
si dejaste de quererme
no hay cuidado que la gente
de esto no se enterará
Que gano con decir
que otra mujer cambio mi suerte
se burlaran de mi
que nadie sepa mi sufrir
P U E N T E Solm-Rem-La7 Solm-Rem-La7
Amor de mis amores
si dejaste de quererme
no hay cuidado que la gente
de esto no se enterará
Que gano con decir
que otra mujer cambio mi suerte
se burlaran de mi
que nadie sepa mi sufrir




[Que nadie sepa mi sufrir acordes][Que nadie sepa mi sufrir chords]
© LaCuerda.net · notícia legal · privacidade · es · en · pt · contato
DINAMICO