Cifras para Violão e Guitarra » J »Julio Melgar » Creo en tí (Tab)

Creo en tí
Julio Melgar

Letras, cifras e tablaturas para violão, guitarra, piano, ukulele e baixo

  • Intro:   // G/Gadd2   A   F#/D   G
                G/Gadd2   A   Bm7 //
    
    Estrofa 1
    
    Bm7              G
    Quiero levantar a Ti mis manos
           D               Aadd9
    Maravilloso Jesús, milagroso Señor,
     Bm7               G
    Llena este lugar de Tu presencia
                   D
    Y haz descender Tu poder
                 Aadd9
    A los que estamos aquí
    
    
    PreCoro
              Bm7  Aadd9    G
    //Creo en Ti,   Je-----esús
    
  • Intro:   // C#m7   Asus2  E   G#m  //
    
    Estrofa 1
    
    C#m7                Asus2
    Quiero levantar a Ti mis manos
           E               G#m
    Maravilloso Jesús, milagroso Señor,
     C#m7                   Asus2
    Solo llena este lugar de Tu presencia
                   E
    Y haz descender Tu poder
                 G#m
    A los que estamos aquí
    
    
    
    Puente:  / C#m7   Asus2  E   G#m  /
    
    
    
  • Am F C G
    
     Am                      F
    Quiero levantar a ti mis Manos...
            C               G
    Maravilloso Jesús, Milagroso señor...
     Am                      F
    Llena este lugar de tu presencia
              C                        G
    Has descender tu poder, alos que estamos aqui
    
             Am   G   F
    Creo en ti... Je-sus
               Am    G  F         x2
    De lo que harás… en-mi
        C         G
    En MI...  en MI...
    
    
            = CORO =
    
  • Intro:   // G/Gadd2   A   F#/D   G
                G/Gadd2   A   Bm7 //
    TAB DOS VECES
    E---------------|---------------|--------------|-------------------------|
    B-----------0-2-|-----------3-0-|----------0-2-|----------3--------------|
    G-------2---0-2-|-------2---2-0-|-------2--0-2-|-----------0-2h----------|
    D-0-2-4-----0-2-|-0-2-4-----0-0-|-0-2-4----0-2-|---------------0-2h------|
    A---------------|---------------|--------------|-----0-2h-----------0-2h-|
    E---------3-----|---------2-----|---------3----|-0-2h--------------------|
    
    *Estrofa*
    Bm7                G
    Quiero levantar a ti mis manos
             D               Aadd9
    Maravilloso Jesús, milagroso Señor
     Bm7                        G
    Llena este lugar de tu presencia
              D                           Aadd9
    Y has descender tu poder a los que estamos aquí
    
    
  • E|-------------------|-------------------|-------------------
    B|------------0--2---|-------------3--0--|------------0--2---
    G|--------2---0--2---|--------2----2--0--|--------2---0--2---
    D|--0-2-4-----0--2---|--0-2-4------0--0--|--0-2-4-----0--2---
    A|-------------------|-------------------|-------------------
    E------------3-------|-----------2-------|-----------3-------
    
    E|------------------------------|
    B|------------3-----------------|
    G|--------------0-2h------------|
    D|-------------------0-2h-------|
    A|-------0-2h-------------0-2h--|
    E|--0-2h------------------------|
    
    
    Bm                 G
    Quiero levantar mis manos
             D               A
    maravilloso jesus, milagroso Señor
     Bm                         G
    
  •             G  A             F#m G              G  A
    E|-----------2---0---|-----------2---2---|-----------2---0---
    B|-----------0---2---|-----------2---0---|-----------0---2---
    G|--------2--0---2---|--------2--2---0---|--------2--0---2---
    D|--0-2h4----0---2---|--0-2h4----4---0---|--0-2h4----0---2---
    A|-----------2---0---|-----------4---2---|-----------2---0---
    E|-----------3---0---|-----------2---3---|-----------3---0---
    
    E|---------------------------|
    B|------------3--------------|
    G|--------------2h0----------|
    D|------------------2h0------|
    A|------0---2-----------0----|
    E|--0-2---2------------------|
    
    
      Bm                 G
    Quiero levantar a Ti mis manos
          D              A
    maravilloso Jesús, milagroso Señor
    
  • Bm                   G
       D    C#   B   A  G   B-A
    Quiero levantar mis ma-anos
    
            D                     A
    G   G  F# E   E  A  A    G F#   E  E  A  A
    ma-ra-vi-llo-so je-sus, mi-la-gro-so Se-ñor
    
    Bm                         G
       D   C#    B     A     G   B-A
    llena este lugar de tu presencia
    
              D                             A
      G    G   F#  E   E  A  A  G  G   F#  E  E   A  A
    y has des-cen-der tu po-der a los que estamos a-qui
    
      Bm          A      G                 B     A   G
       B   C# D  C# D C#  B   B   B    C#  D    C# F# B
    //creo en ti je-e-e--sus, y en lo que haras e-en mi//
    
    D           A
    B   A      G  A
    en mi.... en mi
    
    
    
    D   M F#
    Re-ci-be
    
    Bm
    D   D  B  D   B
    to-da la glo-ria
    
    
    D   M F#
    Re-ci-be
    
    G
    D   D  B  D   B
    to-da la hon-ra
    
           D             A
     B   D  D   D  E F#   E
    pre-ci-oso hi-jo de Dios
    
    NOTA: bueno! espero que la  puedan sacar... no es dificil!...
  • +
    ¡Colabora con nosotros!
    Envíanos tu versión de esta canción

Letra de Creo en tí
Estrofa 1
Quiero levantar a Ti mis manos
Maravilloso Jesús, milagroso Señor,
Llena este lugar de Tu presencia
Y haz descender Tu poder
A los que estamos aquí
PreCoro
Y en lo que harás en mi//
Recibe
Toda la gloria, recibe
Toda la honra
Precioso Hijo de Dios
'Después hace un puente para repetir el coro:
< = Crescendo
Cresc = Crescendo
| * | = parar nota note




[Creo en tí acordes][Creo en tí chords]
© LaCuerda.net · notícia legal · privacidade · es · en · pt · contato
DINAMICO