Cifras para Violão e Guitarra » K »Kaleth Morales » Sombra de mi alma (Tab)

Sombra de mi alma
Kaleth Morales

Letras, cifras e tablaturas para violão, guitarra, piano, ukulele e baixo

  • e||--------------------|-------------------------||
    B||--------------------|-------------------------||
    G||--------------------|-------------------------||
    D||--------------------|-------------------------||
    A||----------3---------|--2----------0-----------||
    E||--------------------|-------------------------||
       Pues ya mañana lejos  muy lejos tengo que irme
    
    e||----------------------------|---------------||
    B||----------------------------|---------------||
    G||----------------------------|---------------||
    D||----------------------------|---------re----||
    A||--------------3-----2-------|-3-------------||
    E||----------------------------|---------------||
       Y aunque me duela he venido  para despedirme
    
    “DE IGUAL FORMA EN LAS MISMAS PARTES DE LAS
     OTRAS ESTROFAS”
    
    BAJOS EN EL CORO:
    
  • Intro: G G D D C C D D X2
    
    
    e---7/8---10------10--10---8--8--7-7------------7--8--7------------------
    B--------------7----------------------10----10-----------10-10-10--8-10-10-10-8
    G------------------------------------------------------------------------
    D------------------------------------------------------------------------
    A------------------------------------------------------------------------
    E------------------------------------------------------------------------
    
    
    e---7/8---10------10/12---12--10--10--8--8--7----7--7--8--7-------------7--
    B--------------7-----------------------------------------------10--10--8---
    G--------------------------------------------------------------------------
    D--------------------------------------------------------------------------
    A--------------------------------------------------------------------------
    E--------------------------------------------------------------------------
    
    
             G                          D
    
  • +
    ¡Colabora con nosotros!
    Envíanos tu versión de esta canción
  • Tutorial
    HD
    como tocar SOMBRA DE MI ALMA de KALETH MORALES en GUITARRA ACÚSTICA - BIEN EXPLICADO
    0:11

Letra de Sombra de mi alma
No Sabes que tuve que hacer para poder decirte
Lo que voy a contarte en esta noche trizte
Pues ya mañana lejos muy lejos tengo que irme
Y aunque me duela e venido para despedirme
Fuimos amigos muchos años y eso bien lo entiendo
Y hoy vengo a confesarte lo que siento hace tiempo
Tiembla mi vos y poco a poco me cobija el miedo
No se si corra o sera mejor quedarme quieto
Te comprendo tu no esperabas que te saliera con esto
Y hoy te ries en mi cara y me preguntas si es en juego
Mira mis ojos y date cuenta que es encerio
No hay palabras disfrazadas Y me sobran argumentos
Para decirte que te amo y que vivir sin ti no puedo
Aunque quiera no doy
Nena tu no imaginas cuantas veces me toco negar que te amaba
Y entender que era otra persona
A la que adorabas y hasta el mundo le dabas
Hasta el mundo le dabas...




[Sombra de mi alma acordes][Sombra de mi alma chords]
© LaCuerda.net · notícia legal · privacidade · es · en · pt · contato
DINAMICO