Cifras para Violão e Guitarra » K »Karma Sudaca » Transparente (Tab)

Transparente
Karma Sudaca

Letras, cifras e tablaturas para violão, guitarra, piano, ukulele e baixo

  • E------------------------------------------
    A------------------------------------------
    D---0-5-0--7-5-4-5-4-0---------------------  x 3
    G------------------------------------------
    B------------------------------------------
    E------------------------------------------
    
    E------------------------------------------
    A------------------------------------------
    D------------------------------------------  x 2
    G----7--------------7----------------------
    B--------10-8-7-8-7------------------------
    E------------------------------------------
    
    E------------------------------------------
    A------------------------------------------
    D------------------------------------------
    G----7--------------9----------------------
    B--------10-8-7-8-7------------------------
    E------------------------------------------
    
  • E/-------------------------------------------
    B/-------------------------------------------
    G/-----12-11-----14-12-11h12p11-----12-11----
    D/--12-12-12-12--12-12-12--------12-12-12-12-
    A/--12-------12------------------12-------12-
    E/-------------------------------------------
    
    E/-------------------------------------------------
    B/-------------------------------------------------
    G/--14--12--11h12p11-----12-11-----14-12-11h12p11--
    D/--12--12--12--------12-12-12-12--12-12-12--------
    A/--------------------12-------12------------------
    E/-------------------------------------------------
    
    E/-------------------------------------
    B/-------------------------------------
    G/-----12-11-----14-14-14-12-12-11-11--
    D/--12-12-12-12--12-12-12-12-12-12-12--
    A/--12-------12------------------------
    E/-------------------------------------
    
  • +
    ¡Colabora con nosotros!
    Envíanos tu versión de esta canción

Letra de Transparente
Soy tu imagen impura
ya no decides mas por mi ya nadie me apura
Ya no decides mas...
Quién puede vivir sin amor
quién puede morir sin perdón
Soy tu eterna saliva
y ya no hablás mas por mi ya nadie me obliga
Quién puede jugar a ser vos
quien puede fingir que es Dios
estribillo
No puedes tocarme, no puedes mirarme
no puedo ver el sol
Soy tu única guarida
y ya no habitas mas en mi ya nadie me abriga
Ya no decides más...
Quién puede jugar al amor
Quien puede fingir el perdón
estribillo
Saco el demonio que hay en mí
No puedo evitar ser así
Soy tu ultima salida
Y estoy a punto de partir
Te llevo conmigo...
Ya no decides más
Quien puede vivir sin ser vos
Quien puede vivir sin un dios
estribillo
no puedo ver el sol,
No puedo ver el sol, no puedo ver el sol
y ya no, ya no puedo ver el sol
ya no puedo ver el sol
no puedo ver el sol
no puedo ver el sol




[Transparente acordes][Transparente chords]
© LaCuerda.net · notícia legal · privacidade · es · en · pt · contato
DINAMICO