Cifras para Violão e Guitarra » K »Kjarkas » Hombre equivocado (Tab)

Hombre equivocado
Kjarkas

Letras, cifras e tablaturas para violão, guitarra, piano, ukulele e baixo

  • e||-0-12-12-12-11-9-7-7-9-11--------------
    B||---------------------------------------------
    G||---------------------------------------------
    D||---------------------------------------------
    A||---------------------------------------------
    E||---------------------------------------------
    
    
    e||-0-11-11-11-9-7-5-5-7-9-
    B||------------------------------
    G||-----------------------------
    D||----------------------------
    A||-----------------------------
    E||-----------------------------
    
    e||-0-9-9-9-7-5-4-4-12-4-
    B||----------------------------
    G||----------------------------
    D||---------------------------
    A||---------------------------
    
  • MI           SI7           MI      |MI FA#m SOL#m|
    Tengo quince años y no he vivido
    LA            LA4            LA
    en mis labios besos nunca he sentido
    LA       MI              SI7
    mis ojos vieron mil madrugadas
    FA#m       SI7*               MI      |MI FA#m SOL#m
    y paso el amor sin golpear mi puerta
    
    MI        SI7              MI     MI FA#m SOL#m
    un dia se puso el mejor vestido
    LA        LA4               LA
    y puso carmin en sus labios tiernos
    LA         MI            SI7
    forzo el camino de su destino
    FA#m         SI7*             MI       MI FA#m SOL#m
    no quiso esperar y salio al encuentro
    
    esa parte se puede tocar asi tambien en todos los estribillos:
    
    
  • --------------------------------------------------------------
    
    bueo esta cancion va dedicada con mucho cariño para mia miga wendy
    feliz cumple espero que te guste;
    
    INTRO:
    
    e|----0-0-0---------------------------------------------------|
    B|--0--------4-4h2----4---4--------4-4-4-4-2--2h0---2----2----|
    G|------------------4---4--------4----------------2----2------|
    D|------------------------------------------------------------|
    A|------------------------------------------------------------|
    E|------------------------------------------------------------|
    
    e|---------------------------------------------0-2-2-0-2-4-0--|
    B|---2-2-2-2-2h0----0--0----------------2h4-4-4---------------|
    G|-2-------------2-1--1---1-1-1-1h0---------------------------|
    D|----------------------2----------4h2h1----------------------|
    A|------------------------------------------------------------|
    E|------------------------------------------------------------|
    
  • +
    ¡Colabora con nosotros!
    Envíanos tu versión de esta canción

Letra de Hombre equivocado
Tengo quince años y no he vivido
en mis labios besos nunca he sentido
mis ojos vieron mil madrugadas
y paso el amor sin golpear mi puerta
un dia se puso el mejor vestido
y puso carmin en sus labios tiernos
forzo el camino de su destino
no quiso esperar y salio al encuentro
esa parte se puede tocar asi tambien en todos los estribillos:
no quiso esperar y salio al encuentro




[Hombre equivocado acordes][Hombre equivocado chords]
© LaCuerda.net · notícia legal · privacidade · es · en · pt · contato
DINAMICO