Cifras para Violão e Guitarra » K »Kjarkas » Vivir junto a ti (Tab)

Vivir junto a ti
Kjarkas

Letras, cifras e tablaturas para violão, guitarra, piano, ukulele e baixo

  • Intro:  REmLAm -  DO  - REm        /2 veces
          SOL REmLAmREm       /2 veces
          DoM – Rem – DoM – Rem
    
                       LA#                     LAm
    A)Quiero llevarte amor mío, sobre un sueño volando
                           SOL                         REm
    Sentir el cielo en las manos, sentir tu cuerpo vibrar
                    LAm-DO                  REm
    Quiero que vengas conmigo, amarnos una vez más
    
    
                   LA#                         LAm      
    A)Eres mi día mi noche, fuego que abraza mi piel
                             
                     SOL                    REm
    Eres tú que enloquece cada rincón de mi ser
                         LAm-DO             REm
    Quiero vivir junto a ti un amor de verdad
    
    
  •   (REm)          (SIb)
     sobre un sueño volando
                     (FA7)
     sentir el cielo en las manos
                       SOL 
     sentir tu cuerpo vibrando
                        (REm)
     Quiero que vengas conmigo
                       (FA7)
     amarnos una ves mas...
      (SOL )         (REm)
     Eres mi dia y mi noche
      (SIb)
     fuego que abraza mi piel
                        (FA7)
     eres tu que enloquece
                   (SOM)
     cada ricon de mi ser
                  (REm)
     quiero vivir junto ati
    
  •    Dm     Am            C           Dm
    E|-5--5-5-3/0-----------0-------------|-----0-1-1--/
    A|------------------0---3-------0---0-|------------/
    E|---3-3-3----------------------------|------------/
    C|-------------2-2/0--0---2-2/0--0--2-|-2-0--------/
    G|------------------------------------|------------/
             |Arpegio II                                    |Espera
                   G            Dm      Am  C         Dm        Dm
    E| se    |-----3-3-3-3--1-0---------0-0-0-0--0-------|  |------|
    A|repite |-0-0--------------0---0-0---------------0--|x2|-0-0--|x3
    E|arpegio|-------------------------------------------|  |------|
    C|   I   |-2-2-2-2-2-2------2---2-2-0-0-0-0----0--2--|  |-0-2--|
    G|       |-------------------------------------------|  |------|
    
    
    Dm               Bb                      Am
    Quiero llevarte amor mío, sobre un sueño volando
                           G                           Dm
    Sentir el cielo en las manos, sentir tu cuerpo vibrar
                     Am       C                Dm
    
  •      REm             LAm         DO              REm
    E---17-15-17-15-17-15-13------------------------------/
    B------------------------15-13---17-15-17-15-13-13-15-/
    G-----------------------------------------------------/
    D-----------------------------------------------------/
    A-----------------------------------------------------/
    E-----------------------------------------------------/
    
         REm             LAm         DO              REm
    E---17-15-17-15-17-15-13------------------------------/
    B------------------------15-13---17-15-17-15-13-13-15-/
    G-----------------------------------------------------/
    D-----------------------------------------------------/
    A-----------------------------------------------------/
    E-----------------------------------------------------/
    
      SOL                   REm      LAm             REm
    E-10-10-15-15-15-15-13-12-10-----10-10-8-8-8-8-6-8-10-/
    B-----------------------------------------------------
    G-----------------------------------------------------
    
  • +
    ¡Colabora con nosotros!
    Envíanos tu versión de esta canción

Letra de Vivir junto a ti
DoM – Rem – DoM – Rem
A)Quiero llevarte amor mío, sobre un sueño volando
Sentir el cielo en las manos, sentir tu cuerpo vibrar
Quiero que vengas conmigo, amarnos una vez más
A)Eres mi día mi noche, fuego que abraza mi piel

Eres tú que enloquece cada rincón de mi ser
Quiero vivir junto a ti un amor de verdad

B)Ayayayay amándote, donde tú estés amándote
Ayayayay amándote, quiero vivir amándote
Zampoñas:Rem–Lam–DoM–Rem–La#-Lam–DoM–Rem
Luego se repite todo y termina con zampoña
Kjarkas vengan a chile, por favor,




[Vivir junto a ti acordes][Vivir junto a ti chords]
© LaCuerda.net · notícia legal · privacidade · es · en · pt · contato
DINAMICO