Cifras para Violão e Guitarra » K »Kraken » Vestido de cristal (Tab)

Vestido de cristal
Kraken

Letras, cifras e tablaturas para violão, guitarra, piano, ukulele e baixo

  • E|----------|-----------------|----------0--------
    B|----------|---3-------3-----|----1-------1------
    G|----0---0-|-----0-------0---|------2-------2----
    D|----------|-------2-------2-|--------2-------2--
    A|----------|-3-------3-------|--0----------------
    E|--0---0---|-----------------|-------------------
         Em            C                  Am
    
    E|------------------
    B|----3------3------
    G|------2------2----
    D|--0------0--------
    A|------------------
    E|------------------
            D
    
    
            E5           C5
    Si hace falta que le mire
          A5       D5
    
  •    Em          C                Am                 D
    E|----------------------------------------0------------------------|
    B|----------------1-------1-----------1-----1---------3------3-----|
    G|----0---0---------0-------0-------2---2-----2---------2------2---|
    D|------2---2---------2-------2-----------------2------------------|
    A|--2-----------3-------3---------0-----------------0------0-------|
    E|-----------------------------------------------------------------|
    
       Em          C                Am                 D
    E|----------------------------------------0------------------------|
    B|----------------1-------1-----------1-----1---------3------3-----|
    G|----0---0---------0-------0-------2---2-----2---------2------2---|
    D|------2---2---------2-------2-----------------2------------------|
    A|--2-----------3-------3---------0-----------------0------0-------|
    E|-----------------------------------------------------------------|
    
       X         XX        Em           C
    E|---------------------0------------0------------|
    B|--------3--------3---0------------1------------|
    G|------2--------2-----0------------0------------|
    
  • Esta transcripción la hago con referencia del álbum más reciente de Kraken
    (Kraken Filarmónico)En el cual la guitarra se encuentra afinada en re para
    acomodar mejor el tema a los arreglos orquestales pero si quieren sacar el
    tema como el original solo es que toquen lo mismo en la afinación
    de mi natural.Como nunca había podido encontrar una versión del
    tema que viniera con el solo me decidí a sacar la tablatura completa.
    
    Como siempre sobre la tablatura les pongo una parte de la letra para que se
    guíen, el resto es que escuchen el tema.
    
    Afinación re; 1=d 2=A 3=F 4=C 5=G 6=D un tono más abajo
    
    h= Hammer
    /= slide
    
    Intro Del teclado en la guitarra
    d|------5-----------|------5-----------|------8-8h10-8--------|
    A|-5-7-8-8-7-5-5----|-5-7-8-8-7-5-5----|-10-12--------12-10-11|
    F|-------------7-7--|--------------7-7-|----------------------|
    C|------------------|------------------|----------------------|
    G|------------------|------------------|----------------------|
    D|-------------
  • INTRO PIANO...
    
    INTRO GUITARRA:
    E|-----------------------------------------------|
    B|-----------------------------------------------|
    G|-----------------------------------------------|
    D|--2~-------------------------------------------|
    A|--2~--2/3--3--2-2/3--3-5-6--6/5~---------------|
    E|--0~-------------------------------------------|
       pm--------------------------->
    
    ARPEGIO:
    E|-------------------------------------0----------------------|
    B|-------------3-------3---------1-------1--------3------3----|
    G|--0---0--------0-------0---------2-------0--------2------2--| X3
    D|----2------------4-------4---------2-------2----------------|
    A|-2------2/3-3-------3--------0-----------------1------3-----|
    E|------------------------------------------------------------|
    
    ESE FUE EL INTRO CORREGIDO QUE NO ENCONTRE EN NINGUNA VERSION DE INTERNET,
    ESE ES EL VERDADERO INTRO DE LA CANCION (y el arpegio intermedio) Y LO
    PUEDEN PROBAR MIENTRAS LA ESCUCHAN Y LA TOCAN.
    
    
    (distorsión):
                  Si 
  • +
    ¡Colabora con nosotros!
    Envíanos tu versión de esta canción
  • Tutorial
    HD
    Vestido de Cristal - Kraken: SOLO GUITARRA TAB #5
    0:48
  • Tutorial
    HD
    Aprende a tocar la canción: Vestido De Cristal - kraken
    Tutorial JuanchoGuitarra
    14:30

Letra de Vestido de cristal
Si hace falta que le mire
a los ojos miraré
ya hoy.... creo que es tiempo
ojos negros piel de hielo
voz de fuego siento al verle
pero sin miedo
olvidarle me da igual no estoy mintiendo
ni ignoro su juego
si su vestido de cristal
se quiebra en silencio
ARPEGIO OTRA VEZ
me ha sorprendido con el llanto
en mis manos muriendo de sed
yyyyy ahora le dire porque no he vuelto
a esconderme bajo su piel
olvidarle me da igual no estoy mintiendo
ni ignoro su juego
si su vestido de cristal
se quiebra en silencio
que debil es su disfraz......
(EL PUNTEO VIENE POR LA TONALIDAD DE SOL MAYOR)
(AQUI LAS NOTAS SON EN LA 5TA CUERDA)
Ojos de negros piel de hielo
voz de fuego oohhh
tranquilo asi en tu piel ohhhh
olvidarle me da igual no estoy mintiendo
ni ignoro su juego
si su vestido de cristal
se quiebra en silencio
que debil es su disfraz......
LAS NOTAS DE LA 5TA CUERDA SE DIGITAN ASI
ESTA ES MI PRIMERA TRANSCRIPCION,
ESPERO QUE LES GUSTE, CUALQUIER
COSA, CRITICA, MENTADA DE MADRE, LO
QUE SEA, ESTE ES MI MAIL juan8321@hotmail.com




[Vestido de cristal acordes][Vestido de cristal chords]
© LaCuerda.net · notícia legal · privacidade · es · en · pt · contato
DINAMICO