Cifras para Violão e Guitarra » L »Leo Dan » Pideme la Luna (Tab)

Pideme la Luna
Leo Dan

Letras, cifras e tablaturas para violão, guitarra, piano, ukulele e baixo

  •               A                  Bm
    Las horas mas lindas las paso contigo si
     E
    no quiero ni pensar si un día ma faltas tú
                           A 
    no quiero ni pensarlo amor
    
    
    (1) 
                  A                   Bm
    Tu me acostumbraste a ser como un sueño
     E
    no quiero ni pensar si un día me faltas tú
                           A 
    no quiero ni pensarlo amor
    
    A                
    Pídeme la luna, te la bajaré
                                      Bm
    pídeme una estrella hasta allá me iré
    
  • e --8-6----6-8- |--8-6---6---
    B ------9------ |------9---9-
    G 8------------ |8-----------
    D ------------- |------------
    A ------------- |------------
    E ------------- |------------
    
    e --6---6---6---6---6---6----  
    B ----9---9---9---9---9------
    G 8--------------------------
    D ---------------------------
    A ---------------------------
    E ---------------------------
    
    e --6---6---8-6-----
    B ----9---9-----9---
    G 8-----------------
    D ------------------
    A ------------------
    E ------------------
    
  • e --9-7----7/9.------9-7----7-----
    B ------10---------------10---7.--
    G 9---------------9---------------
    D --------------------------------
    A --------------------------------
    E --------------------------------
    
    e --7----7----7----7----7----7----
    B ----10---10---10---10---10------
    G 9-------------------------------
    D --------------------------------
    A --------------------------------
    E --------------------------------
    
    e --7----7-----7/9-7--------------
    B ----10---10--------10-----------
    G 9-------------------------------
    D --------------------------------
    A --------------------------------
    E --------------------------------
    
  • En la intro solo hace el punteo de los acordes: A Bm E
    
    Comienza el bajo hasta el puente
    
    
           E                D         A      E       A
    
    G -----------------------------------------------------
    D ----------------0-----0-----0------------------------
    A ----2-----2--------0-----0-----0-2-4-5--4-5-4-0-----0
    E -0-----0-----0-----------------------------------0---
    
                  E            D         A      E       A
    G ---------------------------------------------------------
    D -------------------0-----0-----0-------------------------
    A --------2-----2-------0-----0-----0-2-4-5--4-5-4-0-----0-
    E -4-2-0-----0-----0----------------------------------0----
    
    
    
    Estrofa
    
    
        A                  Bm
    Las horas mas lindas las paso contigo si...
    
    G -----------------------------------------------------
    D -----------------------------------2-----------------
    A -0-----0-----0-2-----2-----2-----2----2-----2-----0--
    E ----0-----0-------2-----2-----0----------0-----0-----
    
    
    
    A                          
  •               A                  Bm
    Las horas mas lindas, las paso contigo si
    E-C#-B-A-B-C#         E-C#-B-A-B-A-F#
    
       E
    no quiero ni pensar si un dia me falta tu
    E-B-A-B-A-B-A-B-A-B-A-B
    
                    A
    no quiero ni pensarlo amor...
    E-B-A-B-A-C#-B-A
    
    
                 A                     Bm
    Tu me acostumbraste, a ser como un niño
    E-C#-B-A-B-C#        E-C#-B-A-B-F#
    
       E
    no quiero ni pensar si un dia me faltas tu
    E-B-A-B-A-B-A-B-A-B-A-B
    
                    A
    no quiero ni pensarlo amor...
    E-B-A-B-A-C#-B-A
    
    
    "ESTRIBILLO"
    
    A
    Pideme la luna te la bajare
    C#-C#-C#-C#-C#-C#-A-B-D-C#-C#
    
                                Bm
    pideme una estrella hasta alla me ire
    C#-C#-C#-C#-C#-C#-A-B-D-C#-B
    
                                    E
    mas nunca me digas no te quiero mas
    B-B-B-B-B-B-G#-A-C#-B-B
    
                                         A
    por que esas palabras me hacen mucho mal
    B-B-B-B-B-B-G#-A-C#-B-A
    
    A
    Pideme la vida y te demostrare
    C#-C#-C#-C#-C#-C#-A-B-D-C#-C#
    
                                  Bm
    cuanto yo te quice
  • +
    ¡Colabora con nosotros!
    Envíanos tu versión de esta canción

Letra de Pideme la Luna
Las horas mas lindas las paso contigo si
no quiero ni pensar si un día ma faltas tú
no quiero ni pensarlo amor
(1)
Tu me acostumbraste a ser como un sueño
no quiero ni pensar si un día me faltas tú
no quiero ni pensarlo amor
Pídeme la luna, te la bajaré
pídeme una estrella hasta allá me iré
más nunca me digas no te quiero más
por que esas palabras me hacen mucho mal
Pídeme la vida y te demostraré
cuanto yo te quiero y cuanto te amaré
tu fuiste y has sido para mi el amor
regalo más lindo que me ha dado Dios
Quisiera esta noche tenerte conmigo amor
no quiero ni pensar si un día me faltas tu
no quiero ni pensarlo amor
Repetir 1




[Pideme la Luna acordes][Pideme la Luna chords]
© LaCuerda.net · notícia legal · privacidade · es · en · pt · contato
DINAMICO